  0
SECTION
  2
HEADER
  9
$ACADVER
  1
AC1009
  9
$DWGCODEPAGE
  3
ansi_1252
  9
$INSBASE
 10
0.0
 20
0.0
 30
0.0
  9
$EXTMIN
 10
0.0
 20
0.0
 30
0.0
  9
$EXTMAX
 10
180.0
 20
160.0
 30
0.0
  9
$LIMMIN
 10
0.0
 20
0.0
  9
$LIMMAX
 10
180.0
 20
160.0
  9
$ORTHOMODE
 70
     0
  9
$REGENMODE
 70
     1
  9
$FILLMODE
 70
     1
  9
$QTEXTMODE
 70
     0
  9
$MIRRTEXT
 70
     1
  9
$DRAGMODE
 70
     2
  9
$LTSCALE
 40
1.0
  9
$OSMODE
 70
    37
  9
$ATTMODE
 70
     1
  9
$TEXTSIZE
 40
2.5
  9
$TRACEWID
 40
1.0
  9
$TEXTSTYLE
  7
STANDARD
  9
$CLAYER
  8
0
  9
$CELTYPE
  6
BYLAYER
  9
$CECOLOR
 62
   256
  9
$DIMSCALE
 40
1.0
  9
$DIMASZ
 40
2.5
  9
$DIMEXO
 40
0.625
  9
$DIMDLI
 40
3.75
  9
$DIMRND
 40
0.0
  9
$DIMDLE
 40
0.0
  9
$DIMEXE
 40
1.25
  9
$DIMTP
 40
0.0
  9
$DIMTM
 40
0.0
  9
$DIMTXT
 40
2.5
  9
$DIMCEN
 40
2.5
  9
$DIMTSZ
 40
0.0
  9
$DIMTOL
 70
     0
  9
$DIMLIM
 70
     0
  9
$DIMTIH
 70
     0
  9
$DIMTOH
 70
     0
  9
$DIMSE1
 70
     0
  9
$DIMSE2
 70
     0
  9
$DIMTAD
 70
     1
  9
$DIMZIN
 70
     8
  9
$DIMBLK
  1

  9
$DIMASO
 70
     1
  9
$DIMSHO
 70
     1
  9
$DIMPOST
  1

  9
$DIMAPOST
  1

  9
$DIMALT
 70
     0
  9
$DIMALTD
 70
     3
  9
$DIMALTF
 40
0.0393700787
  9
$DIMLFAC
 40
1.0
  9
$DIMTOFL
 70
     1
  9
$DIMTVP
 40
0.0
  9
$DIMTIX
 70
     0
  9
$DIMSOXD
 70
     0
  9
$DIMSAH
 70
     0
  9
$DIMBLK1
  1

  9
$DIMBLK2
  1

  9
$DIMSTYLE
  2
ISO-25
  9
$DIMCLRD
 70
     0
  9
$DIMCLRE
 70
     0
  9
$DIMCLRT
 70
     0
  9
$DIMTFAC
 40
1.0
  9
$DIMGAP
 40
0.625
  9
$LUNITS
 70
     2
  9
$LUPREC
 70
     4
  9
$SKETCHINC
 40
1.0
  9
$FILLETRAD
 40
10.0
  9
$AUNITS
 70
     0
  9
$AUPREC
 70
     0
  9
$MENU
  1
.
  9
$ELEVATION
 40
0.0
  9
$PELEVATION
 40
0.0
  9
$THICKNESS
 40
0.0
  9
$LIMCHECK
 70
     0
  9
$CHAMFERA
 40
10.0
  9
$CHAMFERB
 40
10.0
  9
$SKPOLY
 70
     0
  9
$TDCREATE
 40
2457868.395390903
  9
$TDUPDATE
 40
2457868.395392616
  9
$TDINDWG
 40
0.0000000116
  9
$TDUSRTIMER
 40
0.0000000116
  9
$USRTIMER
 70
     1
  9
$ANGBASE
 50
0.0
  9
$ANGDIR
 70
     0
  9
$PDMODE
 70
     0
  9
$PDSIZE
 40
0.0
  9
$PLINEWID
 40
0.0
  9
$COORDS
 70
     1
  9
$SPLFRAME
 70
     0
  9
$SPLINETYPE
 70
     6
  9
$SPLINESEGS
 70
     8
  9
$ATTDIA
 70
     0
  9
$ATTREQ
 70
     1
  9
$HANDLING
 70
     1
  9
$HANDSEED
  5
418
  9
$SURFTAB1
 70
     6
  9
$SURFTAB2
 70
     6
  9
$SURFTYPE
 70
     6
  9
$SURFU
 70
     6
  9
$SURFV
 70
     6
  9
$UCSNAME
  2

  9
$UCSORG
 10
0.0
 20
0.0
 30
0.0
  9
$UCSXDIR
 10
1.0
 20
0.0
 30
0.0
  9
$UCSYDIR
 10
0.0
 20
1.0
 30
0.0
  9
$PUCSNAME
  2

  9
$PUCSORG
 10
0.0
 20
0.0
 30
0.0
  9
$PUCSXDIR
 10
1.0
 20
0.0
 30
0.0
  9
$PUCSYDIR
 10
0.0
 20
1.0
 30
0.0
  9
$USERI1
 70
     0
  9
$USERI2
 70
     0
  9
$USERI3
 70
     0
  9
$USERI4
 70
     0
  9
$USERI5
 70
     0
  9
$USERR1
 40
0.0
  9
$USERR2
 40
0.0
  9
$USERR3
 40
0.0
  9
$USERR4
 40
0.0
  9
$USERR5
 40
0.0
  9
$WORLDVIEW
 70
     1
  9
$SHADEDGE
 70
     3
  9
$SHADEDIF
 70
    70
  9
$TILEMODE
 70
     1
  9
$MAXACTVP
 70
    64
  9
$PLIMCHECK
 70
     0
  9
$PEXTMIN
 10
0.0
 20
0.0
 30
0.0
  9
$PEXTMAX
 10
180.0
 20
160.0
 30
0.0
  9
$PLIMMIN
 10
0.0
 20
0.0
  9
$PLIMMAX
 10
180.0
 20
160.0
  9
$UNITMODE
 70
     0
  9
$VISRETAIN
 70
     1
  9
$PLINEGEN
 70
     0
  9
$PSLTSCALE
 70
     1
  0
ENDSEC
  0
SECTION
  2
TABLES
  0
TABLE
  2
VPORT
 70
     1
  0
VPORT
  2
*ACTIVE
 70
     0
 10
0.0
 20
0.0
 11
1.0
 21
1.0
 12
344.1869158879
 22
148.5
 13
0.0
 23
0.0
 14
10.0
 24
10.0
 15
10.0
 25
10.0
 16
0.0
 26
0.0
 36
1.0
 17
0.0
 27
0.0
 37
0.0
 40
297.0
 41
1.9729729729
 42
50.0
 43
0.0
 44
0.0
 50
0.0
 51
0.0
 71
     0
 72
   100
 73
     1
 74
     3
 75
     0
 76
     0
 77
     0
 78
     0
  0
ENDTAB
  0
TABLE
  2
LTYPE
 70
     4
  0
LTYPE
  2
CONTINUOUS
 70
     0
  3
Solid line
 72
    65
 73
     0
 40
0.0
  0
LTYPE
  2
DASHDOT2
 70
     0
  3
Dash dot (.5x) _._._._._._._._._._._._._._._.
 72
    65
 73
     4
 40
12.7
 49
6.35
 49
-3.175
 49
0.0
 49
-3.175
  0
LTYPE
  2
HIDDEN2
 70
     0
  3
Hidden (.5x) _ _ _ _ _ _ _ _ _ _ _ _ _ _ _ _ _ 
 72
    65
 73
     2
 40
4.7625
 49
3.175
 49
-1.5875
  0
LTYPE
  2
CENTER2
 70
     0
  3
Center (.5x) ___ _ ___ _ ___ _ ___ _ ___ _ ___
 72
    65
 73
     4
 40
28.575
 49
19.05
 49
-3.175
 49
3.175
 49
-3.175
  0
ENDTAB
  0
TABLE
  2
LAYER
 70
     9
  0
LAYER
  2
0
 70
     0
 62
     7
  6
CONTINUOUS
  0
LAYER
  2
DEFAULT
 70
     0
 62
     7
  6
CONTINUOUS
  0
LAYER
  2
DV1_0
 70
     0
 62
     7
  6
CONTINUOUS
  0
LAYER
  2
1A_AUSSEN_DUENN
 70
     0
 62
     7
  6
CONTINUOUS
  0
LAYER
  2
DV1_STANDARD
 70
     0
 62
     7
  6
CONTINUOUS
  0
LAYER
  2
DV2_0
 70
     0
 62
     7
  6
CONTINUOUS
  0
LAYER
  2
DV2_STANDARD
 70
     0
 62
     7
  6
CONTINUOUS
  0
LAYER
  2
DV3_0
 70
     0
 62
     7
  6
CONTINUOUS
  0
LAYER
  2
DV3_STANDARD
 70
     0
 62
     7
  6
CONTINUOUS
  0
ENDTAB
  0
TABLE
  2
STYLE
 70
     3
  0
STYLE
  2
STANDARD
 70
     0
 40
0.0
 41
1.0
 50
0.0
 71
     0
 42
2.5
  3
txt
  4

  0
STYLE
  2
SEACAD_ARIAL
 70
     0
 40
0.0
 41
1.0
 50
0.0
 71
     0
 42
0.2
  3
arial.ttf
  4

  0
STYLE
  2
SEACAD_SOLID_EDGE_ANSI1_SY
 70
     0
 40
0.0
 41
1.0
 50
0.0
 71
     0
 42
0.2
  3
semeca1.ttf
  4

  0
ENDTAB
  0
TABLE
  2
VIEW
 70
     0
  0
ENDTAB
  0
TABLE
  2
UCS
 70
     0
  0
ENDTAB
  0
TABLE
  2
APPID
 70
     1
  0
APPID
  2
ACAD
 70
     0
  0
ENDTAB
  0
TABLE
  2
DIMSTYLE
 70
     1
  0
DIMSTYLE
  2
ISO-25
 70
     0
  3

  4

  5

  6

  7

 40
1.0
 41
2.5
 42
0.625
 43
3.75
 44
1.25
 45
0.0
 46
0.0
 47
0.0
 48
0.0
140
2.5
141
2.5
142
0.0
143
0.0393700787
144
1.0
145
0.0
146
1.0
147
0.625
 71
     0
 72
     0
 73
     0
 74
     0
 75
     0
 76
     0
 77
     1
 78
     8
170
     0
171
     3
172
     1
173
     0
174
     0
175
     0
176
     0
177
     0
178
     0
  0
ENDTAB
  0
ENDSEC
  0
SECTION
  2
BLOCKS
  0
BLOCK
  8
0
  2
$MODEL_SPACE
 70
     0
 10
0.0
 20
0.0
 30
0.0
  3
$MODEL_SPACE
  1

  0
ENDBLK
  5
21
  8
0
  0
BLOCK
 67
     1
  8
0
  2
$PAPER_SPACE
 70
     0
 10
0.0
 20
0.0
 30
0.0
  3
$PAPER_SPACE
  1

  0
ENDBLK
  5
1D
 67
     1
  8
0
  0
BLOCK
  8
0
  2
SEANNOT_GROUP
 70
     0
 10
0.0
 20
0.0
 30
0.0
  3
SEANNOT_GROUP
  1

  0
LINE
  5
43
  8
DEFAULT
  6
DASHDOT2
 62
     7
 10
74.581986744
 20
68.9057348223
 30
0.0
 11
74.581986744
 21
39.5057746862
 31
0.0
  0
ENDBLK
  5
45
  8
0
  0
BLOCK
  8
0
  2
GDIMGGROUP
 70
     0
 10
0.0
 20
0.0
 30
0.0
  3
GDIMGGROUP
  1

  0
POLYLINE
  5
254
  8
DEFAULT
  6
CONTINUOUS
 62
     7
 66
     1
 10
0.0
 20
0.0
 30
0.0
  0
VERTEX
  5
3B2
  8
DEFAULT
  6
CONTINUOUS
 62
     7
 10
45.4019866882
 20
75.0120786079
 30
0.0
  0
VERTEX
  5
3B3
  8
DEFAULT
  6
CONTINUOUS
 62
     7
 10
45.4019866882
 20
74.1787452932
 30
0.0
  0
VERTEX
  5
3B4
  8
DEFAULT
  6
CONTINUOUS
 62
     7
 10
42.901986744
 20
74.5954119506
 30
0.0
  0
VERTEX
  5
3B5
  8
DEFAULT
  6
CONTINUOUS
 62
     7
 10
45.4019866882
 20
75.0120786079
 30
0.0
  0
SEQEND
  5
415
  8
DEFAULT
  6
CONTINUOUS
 62
     7
  0
POLYLINE
  5
255
  8
DEFAULT
  6
CONTINUOUS
 62
     7
 66
     1
 10
0.0
 20
0.0
 30
0.0
  0
VERTEX
  5
3B6
  8
DEFAULT
  6
CONTINUOUS
 62
     7
 10
62.1619867159
 20
75.0120786079
 30
0.0
  0
VERTEX
  5
3B7
  8
DEFAULT
  6
CONTINUOUS
 62
     7
 10
62.1619867159
 20
74.1787452932
 30
0.0
  0
VERTEX
  5
3B8
  8
DEFAULT
  6
CONTINUOUS
 62
     7
 10
64.66198666
 20
74.5954119506
 30
0.0
  0
VERTEX
  5
3B9
  8
DEFAULT
  6
CONTINUOUS
 62
     7
 10
62.1619867159
 20
75.0120786079
 30
0.0
  0
SEQEND
  5
414
  8
DEFAULT
  6
CONTINUOUS
 62
     7
  0
LINE
  5
256
  8
DEFAULT
  6
CONTINUOUS
 62
     7
 10
42.901986744
 20
68.6491748224
 30
0.0
 11
42.901986744
 21
75.8454119227
 31
0.0
  0
LINE
  5
257
  8
DEFAULT
  6
CONTINUOUS
 62
     7
 10
64.661986744
 20
68.6491748224
 30
0.0
 11
64.661986744
 21
75.8454119227
 31
0.0
  0
LINE
  5
258
  8
DEFAULT
  6
CONTINUOUS
 62
     7
 10
42.901986744
 20
74.5954119506
 30
0.0
 11
64.66198666
 21
74.5954119506
 31
0.0
  0
TEXT
  5
25A
  8
DEFAULT
  6
CONTINUOUS
 62
     7
 10
54.1259035594
 20
75.2204119506
 30
0.0
 40
2.5
  1
68
  7
SEACAD_ARIAL
 11
54.1259035594
 21
77.7204119506
 31
0.0
 73
     3
  0
TEXT
  5
25C
  8
DEFAULT
  6
CONTINUOUS
 62
     7
 10
49.5250263664
 20
75.2204119506
 30
0.0
 40
2.5
  1
O
  7
SEACAD_SOLID_EDGE_ANSI1_SY
 11
49.5250263664
 21
77.7204119506
 31
0.0
 73
     3
  0
ENDBLK
  5
25E
  8
0
  0
BLOCK
  8
0
  2
GDIMGGROUP1
 70
     0
 10
0.0
 20
0.0
 30
0.0
  3
GDIMGGROUP1
  1

  0
POLYLINE
  5
261
  8
DEFAULT
  6
CONTINUOUS
 62
     7
 66
     1
 10
0.0
 20
0.0
 30
0.0
  0
VERTEX
  5
3BA
  8
DEFAULT
  6
CONTINUOUS
 62
     7
 10
85.0097910699
 20
61.0611748782
 30
0.0
  0
VERTEX
  5
3BB
  8
DEFAULT
  6
CONTINUOUS
 62
     7
 10
84.1764577552
 20
61.0611748782
 30
0.0
  0
VERTEX
  5
3BC
  8
DEFAULT
  6
CONTINUOUS
 62
     7
 10
84.5931244125
 20
63.5611748223
 30
0.0
  0
VERTEX
  5
3BD
  8
DEFAULT
  6
CONTINUOUS
 62
     7
 10
85.0097910699
 20
61.0611748782
 30
0.0
  0
SEQEND
  5
413
  8
DEFAULT
  6
CONTINUOUS
 62
     7
  0
POLYLINE
  5
262
  8
DEFAULT
  6
CONTINUOUS
 62
     7
 66
     1
 10
0.0
 20
0.0
 30
0.0
  0
VERTEX
  5
3BE
  8
DEFAULT
  6
CONTINUOUS
 62
     7
 10
85.0097910699
 20
43.0211744172
 30
0.0
  0
VERTEX
  5
3BF
  8
DEFAULT
  6
CONTINUOUS
 62
     7
 10
84.1764577552
 20
43.0211744172
 30
0.0
  0
VERTEX
  5
3C0
  8
DEFAULT
  6
CONTINUOUS
 62
     7
 10
84.5931244125
 20
40.521174473
 30
0.0
  0
VERTEX
  5
3C1
  8
DEFAULT
  6
CONTINUOUS
 62
     7
 10
85.0097910699
 20
43.0211744172
 30
0.0
  0
SEQEND
  5
412
  8
DEFAULT
  6
CONTINUOUS
 62
     7
  0
LINE
  5
263
  8
DEFAULT
  6
CONTINUOUS
 62
     7
 10
78.101986744
 20
63.5611748223
 30
0.0
 11
85.8431243846
 21
63.5611748223
 31
0.0
  0
LINE
  5
264
  8
DEFAULT
  6
CONTINUOUS
 62
     7
 10
77.3294388165
 20
40.5211748223
 30
0.0
 11
85.8431243846
 21
40.5211748223
 31
0.0
  0
LINE
  5
265
  8
DEFAULT
  6
CONTINUOUS
 62
     7
 10
84.5931244125
 20
63.5611748223
 30
0.0
 11
84.5931244125
 21
40.521174473
 31
0.0
  0
TEXT
  5
266
  8
DEFAULT
  6
CONTINUOUS
 62
     7
 10
83.9681244125
 20
50.0846529085
 30
0.0
 40
2.5
  1
72
 50
90.0
  7
SEACAD_ARIAL
 11
81.4681244125
 21
50.0846529085
 31
0.0
 73
     3
  0
ENDBLK
  5
268
  8
0
  0
BLOCK
  8
0
  2
GDIMGGROUP2
 70
     0
 10
0.0
 20
0.0
 30
0.0
  3
GDIMGGROUP2
  1

  0
POLYLINE
  5
26B
  8
DEFAULT
  6
CONTINUOUS
 62
     7
 66
     1
 10
0.0
 20
0.0
 30
0.0
  0
VERTEX
  5
3C2
  8
DEFAULT
  6
CONTINUOUS
 62
     7
 10
35.8019866882
 20
25.1282570031
 30
0.0
  0
VERTEX
  5
3C3
  8
DEFAULT
  6
CONTINUOUS
 62
     7
 10
35.8019866882
 20
25.9615903178
 30
0.0
  0
VERTEX
  5
3C4
  8
DEFAULT
  6
CONTINUOUS
 62
     7
 10
33.301986744
 20
25.5449236604
 30
0.0
  0
VERTEX
  5
3C5
  8
DEFAULT
  6
CONTINUOUS
 62
     7
 10
35.8019866882
 20
25.1282570031
 30
0.0
  0
SEQEND
  5
411
  8
DEFAULT
  6
CONTINUOUS
 62
     7
  0
POLYLINE
  5
26C
  8
DEFAULT
  6
CONTINUOUS
 62
     7
 66
     1
 10
0.0
 20
0.0
 30
0.0
  0
VERTEX
  5
3C6
  8
DEFAULT
  6
CONTINUOUS
 62
     7
 10
56.4019861532
 20
25.1282570031
 30
0.0
  0
VERTEX
  5
3C7
  8
DEFAULT
  6
CONTINUOUS
 62
     7
 10
56.4019861532
 20
25.9615903178
 30
0.0
  0
VERTEX
  5
3C8
  8
DEFAULT
  6
CONTINUOUS
 62
     7
 10
58.9019860973
 20
25.5449236604
 30
0.0
  0
VERTEX
  5
3C9
  8
DEFAULT
  6
CONTINUOUS
 62
     7
 10
56.4019861532
 20
25.1282570031
 30
0.0
  0
SEQEND
  5
410
  8
DEFAULT
  6
CONTINUOUS
 62
     7
  0
LINE
  5
26D
  8
DEFAULT
  6
CONTINUOUS
 62
     7
 10
33.301986744
 20
32.5211742195
 30
0.0
 11
33.301986744
 21
24.2949236884
 31
0.0
  0
LINE
  5
26E
  8
DEFAULT
  6
CONTINUOUS
 62
     7
 10
58.901986744
 20
33.1611748223
 30
0.0
 11
58.901986744
 21
24.2949236884
 31
0.0
  0
LINE
  5
26F
  8
DEFAULT
  6
CONTINUOUS
 62
     7
 10
33.301986744
 20
25.5449236604
 30
0.0
 11
58.9019860973
 21
25.5449236604
 31
0.0
  0
TEXT
  5
270
  8
DEFAULT
  6
CONTINUOUS
 62
     7
 10
44.1454646816
 20
26.1699236604
 30
0.0
 40
2.5
  1
80
  7
SEACAD_ARIAL
 11
44.1454646816
 21
28.6699236604
 31
0.0
 73
     3
  0
ENDBLK
  5
272
  8
0
  0
BLOCK
  8
0
  2
GDIMGGROUP3
 70
     0
 10
0.0
 20
0.0
 30
0.0
  3
GDIMGGROUP3
  1

  0
POLYLINE
  5
275
  8
DEFAULT
  6
CONTINUOUS
 62
     7
 66
     1
 10
0.0
 20
0.0
 30
0.0
  0
VERTEX
  5
3CA
  8
DEFAULT
  6
CONTINUOUS
 62
     7
 10
24.8996549811
 20
61.0611748782
 30
0.0
  0
VERTEX
  5
3CB
  8
DEFAULT
  6
CONTINUOUS
 62
     7
 10
25.7329882958
 20
61.0611748782
 30
0.0
  0
VERTEX
  5
3CC
  8
DEFAULT
  6
CONTINUOUS
 62
     7
 10
25.3163216385
 20
63.5611748223
 30
0.0
  0
VERTEX
  5
3CD
  8
DEFAULT
  6
CONTINUOUS
 62
     7
 10
24.8996549811
 20
61.0611748782
 30
0.0
  0
SEQEND
  5
40F
  8
DEFAULT
  6
CONTINUOUS
 62
     7
  0
POLYLINE
  5
276
  8
DEFAULT
  6
CONTINUOUS
 62
     7
 66
     1
 10
0.0
 20
0.0
 30
0.0
  0
VERTEX
  5
3CE
  8
DEFAULT
  6
CONTINUOUS
 62
     7
 10
24.8996549811
 20
34.7011743945
 30
0.0
  0
VERTEX
  5
3CF
  8
DEFAULT
  6
CONTINUOUS
 62
     7
 10
25.7329882958
 20
34.7011743945
 30
0.0
  0
VERTEX
  5
3D0
  8
DEFAULT
  6
CONTINUOUS
 62
     7
 10
25.3163216385
 20
32.2011744504
 30
0.0
  0
VERTEX
  5
3D1
  8
DEFAULT
  6
CONTINUOUS
 62
     7
 10
24.8996549811
 20
34.7011743945
 30
0.0
  0
SEQEND
  5
40E
  8
DEFAULT
  6
CONTINUOUS
 62
     7
  0
LINE
  5
277
  8
DEFAULT
  6
CONTINUOUS
 62
     7
 10
33.621986744
 20
63.5611748223
 30
0.0
 11
24.0663216664
 21
63.5611748223
 31
0.0
  0
LINE
  5
278
  8
DEFAULT
  6
CONTINUOUS
 62
     7
 10
34.394535084
 20
32.2011748223
 30
0.0
 11
24.0663216664
 21
32.2011748223
 31
0.0
  0
LINE
  5
279
  8
DEFAULT
  6
CONTINUOUS
 62
     7
 10
25.3163216385
 20
63.5611748223
 30
0.0
 11
25.3163216385
 21
32.2011744504
 31
0.0
  0
TEXT
  5
27A
  8
DEFAULT
  6
CONTINUOUS
 62
     7
 10
24.6913216385
 20
45.9246528972
 30
0.0
 40
2.5
  1
98
 50
90.0
  7
SEACAD_ARIAL
 11
22.1913216385
 21
45.9246528972
 31
0.0
 73
     3
  0
ENDBLK
  5
27C
  8
0
  0
BLOCK
  8
0
  2
GDIMGGROUP4
 70
     0
 10
0.0
 20
0.0
 30
0.0
  3
GDIMGGROUP4
  1

  0
POLYLINE
  5
27F
  8
DEFAULT
  6
CONTINUOUS
 62
     7
 66
     1
 10
0.0
 20
0.0
 30
0.0
  0
VERTEX
  5
3D2
  8
DEFAULT
  6
CONTINUOUS
 62
     7
 10
51.2819867999
 20
101.4835079274
 30
0.0
  0
VERTEX
  5
3D3
  8
DEFAULT
  6
CONTINUOUS
 62
     7
 10
51.2819867999
 20
102.3168412421
 30
0.0
  0
VERTEX
  5
3D4
  8
DEFAULT
  6
CONTINUOUS
 62
     7
 10
53.781986744
 20
101.9001745848
 30
0.0
  0
VERTEX
  5
3D5
  8
DEFAULT
  6
CONTINUOUS
 62
     7
 10
51.2819867999
 20
101.4835079274
 30
0.0
  0
SEQEND
  5
40D
  8
DEFAULT
  6
CONTINUOUS
 62
     7
  0
POLYLINE
  5
280
  8
DEFAULT
  6
CONTINUOUS
 62
     7
 66
     1
 10
0.0
 20
0.0
 30
0.0
  0
VERTEX
  5
3D6
  8
DEFAULT
  6
CONTINUOUS
 62
     7
 10
35.8019872055
 20
101.4835079274
 30
0.0
  0
VERTEX
  5
3D7
  8
DEFAULT
  6
CONTINUOUS
 62
     7
 10
35.8019872055
 20
102.3168412421
 30
0.0
  0
VERTEX
  5
3D8
  8
DEFAULT
  6
CONTINUOUS
 62
     7
 10
33.3019872614
 20
101.9001745848
 30
0.0
  0
VERTEX
  5
3D9
  8
DEFAULT
  6
CONTINUOUS
 62
     7
 10
35.8019872055
 20
101.4835079274
 30
0.0
  0
SEQEND
  5
40C
  8
DEFAULT
  6
CONTINUOUS
 62
     7
  0
LINE
  5
281
  8
DEFAULT
  6
CONTINUOUS
 62
     7
 10
53.781986744
 20
113.3625156475
 30
0.0
 11
53.781986744
 21
100.6501746127
 31
0.0
  0
LINE
  5
282
  8
DEFAULT
  6
CONTINUOUS
 62
     7
 10
33.301986744
 20
110.7865156475
 30
0.0
 11
33.301986744
 21
100.6501746127
 31
0.0
  0
LINE
  5
283
  8
DEFAULT
  6
CONTINUOUS
 62
     7
 10
53.781986744
 20
101.9001745848
 30
0.0
 11
33.3019872614
 21
101.9001745848
 31
0.0
  0
TEXT
  5
284
  8
DEFAULT
  6
CONTINUOUS
 62
     7
 10
41.5854652636
 20
102.5251745848
 30
0.0
 40
2.5
  1
64
  7
SEACAD_ARIAL
 11
41.5854652636
 21
105.0251745848
 31
0.0
 73
     3
  0
ENDBLK
  5
286
  8
0
  0
BLOCK
  8
0
  2
GDIMGGROUP5
 70
     0
 10
0.0
 20
0.0
 30
0.0
  3
GDIMGGROUP5
  1

  0
POLYLINE
  5
289
  8
DEFAULT
  6
CONTINUOUS
 62
     7
 66
     1
 10
0.0
 20
0.0
 30
0.0
  0
VERTEX
  5
3DA
  8
DEFAULT
  6
CONTINUOUS
 62
     7
 10
24.3317157807
 20
137.0865157034
 30
0.0
  0
VERTEX
  5
3DB
  8
DEFAULT
  6
CONTINUOUS
 62
     7
 10
25.1650490954
 20
137.0865157034
 30
0.0
  0
VERTEX
  5
3DC
  8
DEFAULT
  6
CONTINUOUS
 62
     7
 10
24.7483824381
 20
139.5865156475
 30
0.0
  0
VERTEX
  5
3DD
  8
DEFAULT
  6
CONTINUOUS
 62
     7
 10
24.3317157807
 20
137.0865157034
 30
0.0
  0
SEQEND
  5
40B
  8
DEFAULT
  6
CONTINUOUS
 62
     7
  0
POLYLINE
  5
28A
  8
DEFAULT
  6
CONTINUOUS
 62
     7
 66
     1
 10
0.0
 20
0.0
 30
0.0
  0
VERTEX
  5
3DE
  8
DEFAULT
  6
CONTINUOUS
 62
     7
 10
24.3317157807
 20
112.326516227
 30
0.0
  0
VERTEX
  5
3DF
  8
DEFAULT
  6
CONTINUOUS
 62
     7
 10
25.1650490954
 20
112.326516227
 30
0.0
  0
VERTEX
  5
3E0
  8
DEFAULT
  6
CONTINUOUS
 62
     7
 10
24.7483824381
 20
109.8265162829
 30
0.0
  0
VERTEX
  5
3E1
  8
DEFAULT
  6
CONTINUOUS
 62
     7
 10
24.3317157807
 20
112.326516227
 30
0.0
  0
SEQEND
  5
40A
  8
DEFAULT
  6
CONTINUOUS
 62
     7
  0
LINE
  5
28B
  8
DEFAULT
  6
CONTINUOUS
 62
     7
 10
58.581986744
 20
139.5865156475
 30
0.0
 11
23.498382466
 21
139.5865156475
 31
0.0
  0
LINE
  5
28C
  8
DEFAULT
  6
CONTINUOUS
 62
     7
 10
58.581986744
 20
109.8265156475
 30
0.0
 11
23.498382466
 21
109.8265156475
 31
0.0
  0
LINE
  5
28D
  8
DEFAULT
  6
CONTINUOUS
 62
     7
 10
24.7483824381
 20
139.5865156475
 30
0.0
 11
24.7483824381
 21
109.8265162829
 31
0.0
  0
TEXT
  5
28E
  8
DEFAULT
  6
CONTINUOUS
 62
     7
 10
24.1233824381
 20
122.7499942261
 30
0.0
 40
2.5
  1
93
 50
90.0
  7
SEACAD_ARIAL
 11
21.6233824381
 21
122.7499942261
 31
0.0
 73
     3
  0
ENDBLK
  5
290
  8
0
  0
BLOCK
  8
0
  2
GDIMGGROUP6
 70
     0
 10
0.0
 20
0.0
 30
0.0
  3
GDIMGGROUP6
  1

  0
POLYLINE
  5
293
  8
DEFAULT
  6
CONTINUOUS
 62
     7
 66
     1
 10
0.0
 20
0.0
 30
0.0
  0
VERTEX
  5
3E2
  8
DEFAULT
  6
CONTINUOUS
 62
     7
 10
131.0653867426
 20
24.4944832806
 30
0.0
  0
VERTEX
  5
3E3
  8
DEFAULT
  6
CONTINUOUS
 62
     7
 10
131.0653867426
 20
25.3278165953
 30
0.0
  0
VERTEX
  5
3E4
  8
DEFAULT
  6
CONTINUOUS
 62
     7
 10
128.5653867985
 20
24.911149938
 30
0.0
  0
VERTEX
  5
3E5
  8
DEFAULT
  6
CONTINUOUS
 62
     7
 10
131.0653867426
 20
24.4944832806
 30
0.0
  0
SEQEND
  5
409
  8
DEFAULT
  6
CONTINUOUS
 62
     7
  0
POLYLINE
  5
294
  8
DEFAULT
  6
CONTINUOUS
 62
     7
 66
     1
 10
0.0
 20
0.0
 30
0.0
  0
VERTEX
  5
3E6
  8
DEFAULT
  6
CONTINUOUS
 62
     7
 10
134.0653872343
 20
24.4944832806
 30
0.0
  0
VERTEX
  5
3E7
  8
DEFAULT
  6
CONTINUOUS
 62
     7
 10
134.0653872343
 20
25.3278165953
 30
0.0
  0
VERTEX
  5
3E8
  8
DEFAULT
  6
CONTINUOUS
 62
     7
 10
136.5653871784
 20
24.911149938
 30
0.0
  0
VERTEX
  5
3E9
  8
DEFAULT
  6
CONTINUOUS
 62
     7
 10
134.0653872343
 20
24.4944832806
 30
0.0
  0
SEQEND
  5
408
  8
DEFAULT
  6
CONTINUOUS
 62
     7
  0
LINE
  5
295
  8
DEFAULT
  6
CONTINUOUS
 62
     7
 10
128.5653867985
 20
32.5211748223
 30
0.0
 11
128.5653867985
 21
23.6611499659
 31
0.0
  0
LINE
  5
296
  8
DEFAULT
  6
CONTINUOUS
 62
     7
 10
136.5653867985
 20
35.3219831658
 30
0.0
 11
136.5653867985
 21
23.6611499659
 31
0.0
  0
LINE
  5
297
  8
DEFAULT
  6
CONTINUOUS
 62
     7
 10
128.5653867985
 20
24.911149938
 30
0.0
 11
136.5653871784
 21
24.911149938
 31
0.0
  0
TEXT
  5
298
  8
DEFAULT
  6
CONTINUOUS
 62
     7
 10
130.6088652493
 20
25.536149938
 30
0.0
 40
2.5
  1
25
  7
SEACAD_ARIAL
 11
130.6088652493
 21
28.036149938
 31
0.0
 73
     3
  0
ENDBLK
  5
29A
  8
0
  0
BLOCK
  8
0
  2
GDIMGGROUP7
 70
     0
 10
0.0
 20
0.0
 30
0.0
  3
GDIMGGROUP7
  1

  0
POLYLINE
  5
29D
  8
DEFAULT
  6
CONTINUOUS
 62
     7
 66
     1
 10
0.0
 20
0.0
 30
0.0
  0
VERTEX
  5
3EA
  8
DEFAULT
  6
CONTINUOUS
 62
     7
 10
142.0653868543
 20
24.4632588287
 30
0.0
  0
VERTEX
  5
3EB
  8
DEFAULT
  6
CONTINUOUS
 62
     7
 10
142.0653868543
 20
25.2965921434
 30
0.0
  0
VERTEX
  5
3EC
  8
DEFAULT
  6
CONTINUOUS
 62
     7
 10
144.5653867985
 20
24.879925486
 30
0.0
  0
VERTEX
  5
3ED
  8
DEFAULT
  6
CONTINUOUS
 62
     7
 10
142.0653868543
 20
24.4632588287
 30
0.0
  0
SEQEND
  5
407
  8
DEFAULT
  6
CONTINUOUS
 62
     7
  0
POLYLINE
  5
29E
  8
DEFAULT
  6
CONTINUOUS
 62
     7
 66
     1
 10
0.0
 20
0.0
 30
0.0
  0
VERTEX
  5
3EE
  8
DEFAULT
  6
CONTINUOUS
 62
     7
 10
139.0653863626
 20
24.4632588287
 30
0.0
  0
VERTEX
  5
3EF
  8
DEFAULT
  6
CONTINUOUS
 62
     7
 10
139.0653863626
 20
25.2965921434
 30
0.0
  0
VERTEX
  5
3F0
  8
DEFAULT
  6
CONTINUOUS
 62
     7
 10
136.5653864185
 20
24.879925486
 30
0.0
  0
VERTEX
  5
3F1
  8
DEFAULT
  6
CONTINUOUS
 62
     7
 10
139.0653863626
 20
24.4632588287
 30
0.0
  0
SEQEND
  5
406
  8
DEFAULT
  6
CONTINUOUS
 62
     7
  0
LINE
  5
29F
  8
DEFAULT
  6
CONTINUOUS
 62
     7
 10
144.5653867985
 20
32.5211748223
 30
0.0
 11
144.5653867985
 21
23.629925514
 31
0.0
  0
LINE
  5
2A0
  8
DEFAULT
  6
CONTINUOUS
 62
     7
 10
136.5653867985
 20
32.1219831658
 30
0.0
 11
136.5653867985
 21
23.629925514
 31
0.0
  0
LINE
  5
2A1
  8
DEFAULT
  6
CONTINUOUS
 62
     7
 10
144.5653867985
 20
24.879925486
 30
0.0
 11
136.5653864185
 21
24.879925486
 31
0.0
  0
TEXT
  5
2A2
  8
DEFAULT
  6
CONTINUOUS
 62
     7
 10
138.6088648693
 20
25.504925486
 30
0.0
 40
2.5
  1
25
  7
SEACAD_ARIAL
 11
138.6088648693
 21
28.004925486
 31
0.0
 73
     3
  0
ENDBLK
  5
2A4
  8
0
  0
BLOCK
  8
0
  2
GDIMGGROUP8
 70
     0
 10
0.0
 20
0.0
 30
0.0
  3
GDIMGGROUP8
  1

  0
POLYLINE
  5
2A7
  8
DEFAULT
  6
CONTINUOUS
 62
     7
 66
     1
 10
0.0
 20
0.0
 30
0.0
  0
VERTEX
  5
3F2
  8
DEFAULT
  6
CONTINUOUS
 62
     7
 10
158.3998507519
 20
34.7011747664
 30
0.0
  0
VERTEX
  5
3F3
  8
DEFAULT
  6
CONTINUOUS
 62
     7
 10
157.5665174371
 20
34.7011747664
 30
0.0
  0
VERTEX
  5
3F4
  8
DEFAULT
  6
CONTINUOUS
 62
     7
 10
157.9831840945
 20
32.2011748223
 30
0.0
  0
VERTEX
  5
3F5
  8
DEFAULT
  6
CONTINUOUS
 62
     7
 10
158.3998507519
 20
34.7011747664
 30
0.0
  0
SEQEND
  5
405
  8
DEFAULT
  6
CONTINUOUS
 62
     7
  0
POLYLINE
  5
2A8
  8
DEFAULT
  6
CONTINUOUS
 62
     7
 66
     1
 10
0.0
 20
0.0
 30
0.0
  0
VERTEX
  5
3F6
  8
DEFAULT
  6
CONTINUOUS
 62
     7
 10
158.3998507519
 20
37.7011752582
 30
0.0
  0
VERTEX
  5
3F7
  8
DEFAULT
  6
CONTINUOUS
 62
     7
 10
157.5665174371
 20
37.7011752582
 30
0.0
  0
VERTEX
  5
3F8
  8
DEFAULT
  6
CONTINUOUS
 62
     7
 10
157.9831840945
 20
40.2011752023
 30
0.0
  0
VERTEX
  5
3F9
  8
DEFAULT
  6
CONTINUOUS
 62
     7
 10
158.3998507519
 20
37.7011752582
 30
0.0
  0
SEQEND
  5
404
  8
DEFAULT
  6
CONTINUOUS
 62
     7
  0
LINE
  5
2A9
  8
DEFAULT
  6
CONTINUOUS
 62
     7
 10
147.6191126285
 20
32.2011748223
 30
0.0
 11
159.2331840666
 21
32.2011748223
 31
0.0
  0
LINE
  5
2AA
  8
DEFAULT
  6
CONTINUOUS
 62
     7
 10
144.5653867985
 20
40.2011748223
 30
0.0
 11
159.2331840666
 21
40.2011748223
 31
0.0
  0
LINE
  5
2AB
  8
DEFAULT
  6
CONTINUOUS
 62
     7
 10
157.9831840945
 20
32.2011748223
 30
0.0
 11
157.9831840945
 21
40.2011752023
 31
0.0
  0
TEXT
  5
2AC
  8
DEFAULT
  6
CONTINUOUS
 62
     7
 10
157.3581840945
 20
34.2446532732
 30
0.0
 40
2.5
  1
25
 50
90.0
  7
SEACAD_ARIAL
 11
154.8581840945
 21
34.2446532732
 31
0.0
 73
     3
  0
ENDBLK
  5
2AE
  8
0
  0
BLOCK
  8
0
  2
GDIMGGROUP9
 70
     0
 10
0.0
 20
0.0
 30
0.0
  3
GDIMGGROUP9
  1

  0
POLYLINE
  5
2B1
  8
DEFAULT
  6
CONTINUOUS
 62
     7
 66
     1
 10
0.0
 20
0.0
 30
0.0
  0
VERTEX
  5
3FA
  8
DEFAULT
  6
CONTINUOUS
 62
     7
 10
35.8019866882
 20
94.341159924
 30
0.0
  0
VERTEX
  5
3FB
  8
DEFAULT
  6
CONTINUOUS
 62
     7
 10
35.8019866882
 20
95.1744932387
 30
0.0
  0
VERTEX
  5
3FC
  8
DEFAULT
  6
CONTINUOUS
 62
     7
 10
33.301986744
 20
94.7578265813
 30
0.0
  0
VERTEX
  5
3FD
  8
DEFAULT
  6
CONTINUOUS
 62
     7
 10
35.8019866882
 20
94.341159924
 30
0.0
  0
SEQEND
  5
403
  8
DEFAULT
  6
CONTINUOUS
 62
     7
  0
POLYLINE
  5
2B2
  8
DEFAULT
  6
CONTINUOUS
 62
     7
 66
     1
 10
0.0
 20
0.0
 30
0.0
  0
VERTEX
  5
3FE
  8
DEFAULT
  6
CONTINUOUS
 62
     7
 10
75.9219876392
 20
94.341159924
 30
0.0
  0
VERTEX
  5
3FF
  8
DEFAULT
  6
CONTINUOUS
 62
     7
 10
75.9219876392
 20
95.1744932387
 30
0.0
  0
VERTEX
  5
400
  8
DEFAULT
  6
CONTINUOUS
 62
     7
 10
78.4219875833
 20
94.7578265813
 30
0.0
  0
VERTEX
  5
401
  8
DEFAULT
  6
CONTINUOUS
 62
     7
 10
75.9219876392
 20
94.341159924
 30
0.0
  0
SEQEND
  5
402
  8
DEFAULT
  6
CONTINUOUS
 62
     7
  0
LINE
  5
2B3
  8
DEFAULT
  6
CONTINUOUS
 62
     7
 10
33.301986744
 20
116.3865156022
 30
0.0
 11
33.301986744
 21
93.5078266093
 31
0.0
  0
LINE
  5
2B4
  8
DEFAULT
  6
CONTINUOUS
 62
     7
 10
78.421986744
 20
110.7865160016
 30
0.0
 11
78.421986744
 21
93.5078266093
 31
0.0
  0
LINE
  5
2B5
  8
DEFAULT
  6
CONTINUOUS
 62
     7
 10
33.301986744
 20
94.7578265813
 30
0.0
 11
78.4219875833
 21
94.7578265813
 31
0.0
  0
TEXT
  5
2B6
  8
DEFAULT
  6
CONTINUOUS
 62
     7
 10
52.927204555
 20
95.3828265813
 30
0.0
 40
2.5
  1
141
  7
SEACAD_ARIAL
 11
52.927204555
 21
97.8828265813
 31
0.0
 73
     3
  0
ENDBLK
  5
2B8
  8
0
  0
ENDSEC
  0
SECTION
  2
ENTITIES
  0
INSERT
  5
41
  8
DEFAULT
  2
SEANNOT_GROUP
 10
0.0
 20
0.0
 30
0.0
  0
LINE
  5
48
  8
DV1_0
  6
HIDDEN2
 62
     1
 10
36.981986744
 20
35.4011748223
 30
0.0
 11
41.781986744
 21
35.4011748223
 31
0.0
  0
LINE
  5
49
  8
DV1_0
  6
HIDDEN2
 62
     1
 10
72.181986744
 20
43.4011748223
 30
0.0
 11
76.981986744
 21
43.4011748223
 31
0.0
  0
LINE
  5
4A
  8
DV1_0
  6
CONTINUOUS
 62
     7
 10
34.261986744
 20
55.3945290021
 30
0.0
 11
77.461986744
 21
55.3945290021
 31
0.0
  0
LINE
  5
4B
  8
DV1_0
  6
CONTINUOUS
 62
     7
 10
34.261986744
 20
55.3945290021
 30
0.0
 11
34.261986744
 21
32.5211748223
 31
0.0
  0
LINE
  5
4C
  8
DV1_0
  6
CONTINUOUS
 62
     7
 10
77.461986744
 20
55.3945290021
 30
0.0
 11
78.101986744
 21
59.0241493666
 31
0.0
  0
LINE
  5
4D
  8
DV1_0
  6
CONTINUOUS
 62
     7
 10
78.101986744
 20
40.5211748223
 30
0.0
 11
77.3294384041
 21
40.5211748223
 31
0.0
  0
LINE
  5
4E
  8
DV1_0
  6
CONTINUOUS
 62
     7
 10
77.3294384041
 20
40.5211748223
 30
0.0
 11
58.901986744
 21
40.5211748223
 31
0.0
  0
LINE
  5
4F
  8
DV1_0
  6
CONTINUOUS
 62
     7
 10
78.421986744
 20
58.9961529943
 30
0.0
 11
78.421986744
 21
40.8411748223
 31
0.0
  0
LINE
  5
50
  8
DV1_0
  6
CONTINUOUS
 62
     7
 10
78.421986744
 20
63.2411748223
 30
0.0
 11
78.421986744
 21
58.9961529943
 31
0.0
  0
LINE
  5
51
  8
DV1_0
  6
CONTINUOUS
 62
     7
 10
77.461986744
 20
40.8411748223
 30
0.0
 11
77.461986744
 21
55.3945290021
 31
0.0
  0
LINE
  5
52
  8
DV1_0
  6
CONTINUOUS
 62
     7
 10
34.394535084
 20
32.2011748223
 30
0.0
 11
33.621986744
 21
32.2011748223
 31
0.0
  0
LINE
  5
53
  8
DV1_0
  6
CONTINUOUS
 62
     7
 10
57.941986744
 20
32.2011748223
 30
0.0
 11
34.394535084
 21
32.2011748223
 31
0.0
  0
LINE
  5
54
  8
DV1_0
  6
CONTINUOUS
 62
     7
 10
33.621986744
 20
59.0241493666
 30
0.0
 11
34.261986744
 21
55.3945290021
 31
0.0
  0
LINE
  5
55
  8
DV1_0
  6
CONTINUOUS
 62
     7
 10
33.301986744
 20
32.5211748223
 30
0.0
 11
33.301986744
 21
58.9961529943
 31
0.0
  0
LINE
  5
56
  8
DV1_0
  6
CONTINUOUS
 62
     7
 10
33.621986744
 20
59.0241493666
 30
0.0
 11
33.301986744
 21
58.9961529943
 31
0.0
  0
LINE
  5
57
  8
DV1_0
  6
CONTINUOUS
 62
     7
 10
33.301986744
 20
58.9961529943
 30
0.0
 11
33.301986744
 21
63.2411748223
 31
0.0
  0
LINE
  5
58
  8
DV1_0
  6
CONTINUOUS
 62
     7
 10
78.101986744
 20
63.5611748223
 30
0.0
 11
33.621986744
 21
63.5611748223
 31
0.0
  0
LINE
  5
59
  8
DV1_0
  6
CONTINUOUS
 62
     7
 10
78.101986744
 20
59.0241493666
 30
0.0
 11
78.101986744
 21
63.5611748223
 31
0.0
  0
LINE
  5
5A
  8
DV1_0
  6
CONTINUOUS
 62
     7
 10
58.901986744
 20
33.1611748223
 30
0.0
 11
57.941986744
 21
32.2011748223
 31
0.0
  0
LINE
  5
5B
  8
DV1_0
  6
CONTINUOUS
 62
     7
 10
78.421986744
 20
58.9961529943
 30
0.0
 11
78.101986744
 21
59.0241493666
 31
0.0
  0
LINE
  5
5C
  8
DV1_0
  6
CONTINUOUS
 62
     7
 10
58.901986744
 20
40.5211748223
 30
0.0
 11
58.901986744
 21
33.1611748223
 31
0.0
  0
LINE
  5
5D
  8
DV1_0
  6
HIDDEN2
 62
     1
 10
58.901986744
 20
40.2011748223
 30
0.0
 11
58.629986744
 21
40.2011748223
 31
0.0
  0
LINE
  5
5E
  8
DV1_0
  6
HIDDEN2
 62
     1
 10
33.301986744
 20
40.5211748223
 30
0.0
 11
33.621986744
 21
40.2011748223
 31
0.0
  0
LINE
  5
5F
  8
DV1_0
  6
CONTINUOUS
 62
     7
 10
33.301986744
 20
32.5211748223
 30
0.0
 11
33.621986744
 21
32.2011748223
 31
0.0
  0
LINE
  5
60
  8
DV1_0
  6
CONTINUOUS
 62
     7
 10
34.261986744
 20
32.5211748223
 30
0.0
 11
34.394535084
 21
32.2011748223
 31
0.0
  0
LINE
  5
61
  8
DV1_0
  6
CONTINUOUS
 62
     7
 10
77.461986744
 20
40.8411748223
 30
0.0
 11
77.3294384041
 21
40.5211748223
 31
0.0
  0
LINE
  5
62
  8
DV1_0
  6
CONTINUOUS
 62
     7
 10
78.421986744
 20
40.8411748223
 30
0.0
 11
78.101986744
 21
40.5211748223
 31
0.0
  0
LINE
  5
63
  8
DV1_0
  6
CONTINUOUS
 62
     7
 10
33.621986744
 20
63.5611748223
 30
0.0
 11
33.301986744
 21
63.2411748223
 31
0.0
  0
LINE
  5
64
  8
DV1_0
  6
CONTINUOUS
 62
     7
 10
78.101986744
 20
63.5611748223
 30
0.0
 11
78.421986744
 21
63.2411748223
 31
0.0
  0
LINE
  5
65
  8
DV1_0
  6
HIDDEN2
 62
     1
 10
58.629986744
 20
40.2011748223
 30
0.0
 11
33.573986744
 21
40.2011748223
 31
0.0
  0
LINE
  5
66
  8
DV1_0
  6
HIDDEN2
 62
     1
 10
36.981986744
 20
35.4011748223
 30
0.0
 11
36.981986744
 21
32.2011748223
 31
0.0
  0
LINE
  5
67
  8
DV1_0
  6
HIDDEN2
 62
     1
 10
41.781986744
 20
32.2011748223
 30
0.0
 11
41.781986744
 21
35.4011748223
 31
0.0
  0
LINE
  5
68
  8
DV1_0
  6
HIDDEN2
 62
     1
 10
72.181986744
 20
43.4011748223
 30
0.0
 11
72.181986744
 21
40.5211748223
 31
0.0
  0
LINE
  5
69
  8
DV1_0
  6
HIDDEN2
 62
     1
 10
76.981986744
 20
40.5211748223
 30
0.0
 11
76.981986744
 21
43.4011748223
 31
0.0
  0
LINE
  5
6A
  8
DV1_0
  6
HIDDEN2
 62
     1
 10
41.205986744
 20
32.8411748223
 30
0.0
 11
37.557986744
 21
32.8411748223
 31
0.0
  0
LINE
  5
6B
  8
DV1_0
  6
CONTINUOUS
 62
     7
 10
40.416546744
 20
67.4011748223
 30
0.0
 11
38.347426744
 21
67.4011748223
 31
0.0
  0
LINE
  5
6C
  8
DV1_0
  6
HIDDEN2
 62
     1
 10
40.341986744
 20
34.1211748223
 30
0.0
 11
40.341986744
 21
34.4411748223
 31
0.0
  0
LINE
  5
6D
  8
DV1_0
  6
HIDDEN2
 62
     1
 10
37.301986744
 20
33.0971748223
 30
0.0
 11
37.557986744
 21
32.8411748223
 31
0.0
  0
LINE
  5
6E
  8
DV1_0
  6
HIDDEN2
 62
     1
 10
41.205986744
 20
32.8411748223
 30
0.0
 11
41.461986744
 21
33.0971748223
 31
0.0
  0
LINE
  5
6F
  8
DV1_0
  6
HIDDEN2
 62
     1
 10
37.301986744
 20
35.2939748223
 30
0.0
 11
37.301986744
 21
33.0971748223
 31
0.0
  0
LINE
  5
70
  8
DV1_0
  6
HIDDEN2
 62
     1
 10
41.461986744
 20
33.0971748223
 30
0.0
 11
41.461986744
 21
35.2939748223
 31
0.0
  0
LINE
  5
71
  8
DV1_0
  6
HIDDEN2
 62
     1
 10
41.461986744
 20
35.2939748223
 30
0.0
 11
41.354786744
 21
35.4011748223
 31
0.0
  0
LINE
  5
72
  8
DV1_0
  6
HIDDEN2
 62
     1
 10
37.409186744
 20
35.4011748223
 30
0.0
 11
37.301986744
 21
35.2939748223
 31
0.0
  0
ARC
  5
73
  8
DV1_0
  6
HIDDEN2
 62
     1
 10
37.8367776491
 20
35.5291748223
 30
0.0
 40
0.1279999999999993
 50
270.0
 51
329.5344550805
  0
ARC
  5
74
  8
DV1_0
  6
HIDDEN2
 62
     1
 10
40.927195839
 20
35.5291748223
 30
0.0
 40
0.1279999999999992
 50
210.4655449195
 51
270.0
  0
LINE
  5
75
  8
DV1_0
  6
HIDDEN2
 62
     1
 10
40.8168682595
 20
35.4642762461
 30
0.0
 11
40.6796591645
 21
35.6975317075
 31
0.0
  0
LINE
  5
76
  8
DV1_0
  6
HIDDEN2
 62
     1
 10
38.0843143236
 20
35.6975317075
 30
0.0
 11
37.9471052286
 21
35.4642762461
 31
0.0
  0
ARC
  5
77
  8
DV1_0
  6
HIDDEN2
 62
     1
 10
37.973986744
 20
35.7624302837
 30
0.0
 40
0.1279999999999415
 50
329.5344550805
 51
0.0
  0
ARC
  5
78
  8
DV1_0
  6
HIDDEN2
 62
     1
 10
40.789986744
 20
35.7624302837
 30
0.0
 40
0.1279999999999451
 50
180.0
 51
210.4655449195
  0
LINE
  5
79
  8
DV1_0
  6
CONTINUOUS
 62
     7
 10
38.101986744
 20
67.1557348223
 30
0.0
 11
38.101986744
 21
63.5611748224
 31
0.0
  0
LINE
  5
7A
  8
DV1_0
  6
HIDDEN2
 62
     1
 10
38.101986744
 20
63.5611748224
 30
0.0
 11
38.101986744
 21
35.7624302837
 31
0.0
  0
LINE
  5
7B
  8
DV1_0
  6
HIDDEN2
 62
     1
 10
40.661986744
 20
35.7624302837
 30
0.0
 11
40.661986744
 21
63.5611748224
 31
0.0
  0
LINE
  5
7C
  8
DV1_0
  6
CONTINUOUS
 62
     7
 10
40.661986744
 20
63.5611748224
 30
0.0
 11
40.661986744
 21
67.1557348223
 31
0.0
  0
LINE
  5
7D
  8
DV1_0
  6
CONTINUOUS
 62
     7
 10
40.661986744
 20
67.1557348223
 30
0.0
 11
40.416546744
 21
67.4011748223
 31
0.0
  0
LINE
  5
7E
  8
DV1_0
  6
CONTINUOUS
 62
     7
 10
38.347426744
 20
67.4011748223
 30
0.0
 11
38.101986744
 21
67.1557348223
 31
0.0
  0
LINE
  5
7F
  8
DV1_0
  6
CONTINUOUS
 62
     7
 10
64.597986744
 20
65.1611748224
 30
0.0
 11
42.965986744
 21
65.1611748224
 31
0.0
  0
LINE
  5
80
  8
DV1_0
  6
CONTINUOUS
 62
     7
 10
64.597986744
 20
66.4731748224
 30
0.0
 11
42.965986744
 21
66.4731748224
 31
0.0
  0
LINE
  5
81
  8
DV1_0
  6
CONTINUOUS
 62
     7
 10
64.3172346579
 20
71.2411748224
 30
0.0
 11
43.2467388302
 21
71.2411748224
 31
0.0
  0
LINE
  5
82
  8
DV1_0
  6
CONTINUOUS
 62
     7
 10
42.901986744
 20
63.7531748224
 30
0.0
 11
43.0128379957
 21
63.5611748224
 31
0.0
  0
LINE
  5
83
  8
DV1_0
  6
CONTINUOUS
 62
     7
 10
64.5511354924
 20
63.5611748224
 30
0.0
 11
64.661986744
 21
63.7531748224
 31
0.0
  0
LINE
  5
84
  8
DV1_0
  6
CONTINUOUS
 62
     7
 10
42.901986744
 20
65.0971748224
 30
0.0
 11
42.901986744
 21
63.7531748224
 31
0.0
  0
LINE
  5
85
  8
DV1_0
  6
CONTINUOUS
 62
     7
 10
64.661986744
 20
63.7531748224
 30
0.0
 11
64.661986744
 21
65.0971748224
 31
0.0
  0
ARC
  5
86
  8
DV1_0
  6
CONTINUOUS
 62
     7
 10
42.965986744
 20
65.0971748224
 30
0.0
 40
0.0640000000000002
 50
90.0
 51
180.0
  0
ARC
  5
87
  8
DV1_0
  6
CONTINUOUS
 62
     7
 10
64.597986744
 20
65.0971748224
 30
0.0
 40
0.0639999999999996
 50
0.0
 51
90.0
  0
ARC
  5
88
  8
DV1_0
  6
CONTINUOUS
 62
     7
 10
42.965986744
 20
66.5371748224
 30
0.0
 40
0.0639999999999996
 50
180.0
 51
270.0
  0
ARC
  5
89
  8
DV1_0
  6
CONTINUOUS
 62
     7
 10
64.597986744
 20
66.5371748224
 30
0.0
 40
0.0639999999999996
 50
270.0
 51
0.0
  0
LINE
  5
8A
  8
DV1_0
  6
CONTINUOUS
 62
     7
 10
42.901986744
 20
70.7611748224
 30
0.0
 11
42.901986744
 21
66.5371748224
 31
0.0
  0
LINE
  5
8B
  8
DV1_0
  6
CONTINUOUS
 62
     7
 10
64.661986744
 20
66.5371748224
 30
0.0
 11
64.661986744
 21
70.7611748224
 31
0.0
  0
ARC
  5
8C
  8
DV1_0
  6
CONTINUOUS
 62
     7
 10
43.061986744
 20
70.7611748224
 30
0.0
 40
0.1599999999999995
 50
150.0
 51
180.0
  0
ARC
  5
8D
  8
DV1_0
  6
CONTINUOUS
 62
     7
 10
64.501986744
 20
70.7611748224
 30
0.0
 40
0.1600000000000001
 50
0.0
 51
30.0
  0
LINE
  5
8E
  8
DV1_0
  6
CONTINUOUS
 62
     7
 10
64.6405508086
 20
70.8411748224
 30
0.0
 11
64.4557987225
 21
71.1611748224
 31
0.0
  0
LINE
  5
8F
  8
DV1_0
  6
CONTINUOUS
 62
     7
 10
43.1081747656
 20
71.1611748224
 30
0.0
 11
42.9234226794
 21
70.8411748224
 31
0.0
  0
ARC
  5
90
  8
DV1_0
  6
CONTINUOUS
 62
     7
 10
43.2467388302
 20
71.0811748224
 30
0.0
 40
0.1599999999999979
 50
90.0
 51
150.0
  0
ARC
  5
91
  8
DV1_0
  6
CONTINUOUS
 62
     7
 10
64.3172346579
 20
71.0811748224
 30
0.0
 40
0.1599999999999995
 50
30.0
 51
90.0
  0
LINE
  5
92
  8
DV1_0
  6
CONTINUOUS
 62
     7
 10
64.245986744
 20
66.4731748224
 30
0.0
 11
43.317986744
 21
66.4731748224
 31
0.0
  0
LINE
  5
93
  8
DV1_0
  6
CONTINUOUS
 62
     7
 10
64.245986744
 20
65.1611748224
 30
0.0
 11
43.317986744
 21
65.1611748224
 31
0.0
  0
ARC
  5
94
  8
DV1_0
  6
CONTINUOUS
 62
     7
 10
43.317986744
 20
66.1531748224
 30
0.0
 40
0.3200000000000003
 50
90.0
 51
180.0
  0
ARC
  5
95
  8
DV1_0
  6
CONTINUOUS
 62
     7
 10
64.245986744
 20
66.1531748224
 30
0.0
 40
0.3200000000000003
 50
0.0
 51
90.0
  0
LINE
  5
96
  8
DV1_0
  6
CONTINUOUS
 62
     7
 10
42.997986744
 20
66.1531748224
 30
0.0
 11
42.997986744
 21
65.4811748224
 31
0.0
  0
LINE
  5
97
  8
DV1_0
  6
CONTINUOUS
 62
     7
 10
64.565986744
 20
65.4811748224
 30
0.0
 11
64.565986744
 21
66.1531748224
 31
0.0
  0
ARC
  5
98
  8
DV1_0
  6
CONTINUOUS
 62
     7
 10
43.317986744
 20
65.4811748224
 30
0.0
 40
0.3200000000000003
 50
180.0
 51
270.0
  0
ARC
  5
99
  8
DV1_0
  6
CONTINUOUS
 62
     7
 10
64.245986744
 20
65.4811748224
 30
0.0
 40
0.3199999999999989
 50
270.0
 51
0.0
  0
LINE
  5
9A
  8
DV1_0
  6
CONTINUOUS
 62
     7
 10
75.616546744
 20
67.4011748223
 30
0.0
 11
73.547426744
 21
67.4011748223
 31
0.0
  0
LINE
  5
9B
  8
DV1_0
  6
HIDDEN2
 62
     1
 10
72.501986744
 20
41.0971748223
 30
0.0
 11
72.757986744
 21
40.8411748223
 31
0.0
  0
LINE
  5
9C
  8
DV1_0
  6
HIDDEN2
 62
     1
 10
76.405986744
 20
40.8411748223
 30
0.0
 11
76.661986744
 21
41.0971748223
 31
0.0
  0
LINE
  5
9D
  8
DV1_0
  6
HIDDEN2
 62
     1
 10
72.501986744
 20
43.2939748223
 30
0.0
 11
72.501986744
 21
41.0971748223
 31
0.0
  0
LINE
  5
9E
  8
DV1_0
  6
HIDDEN2
 62
     1
 10
76.661986744
 20
41.0971748223
 30
0.0
 11
76.661986744
 21
43.2939748223
 31
0.0
  0
LINE
  5
9F
  8
DV1_0
  6
HIDDEN2
 62
     1
 10
76.661986744
 20
43.2939748223
 30
0.0
 11
76.554786744
 21
43.4011748223
 31
0.0
  0
LINE
  5
A0
  8
DV1_0
  6
HIDDEN2
 62
     1
 10
72.609186744
 20
43.4011748223
 30
0.0
 11
72.501986744
 21
43.2939748223
 31
0.0
  0
ARC
  5
A1
  8
DV1_0
  6
HIDDEN2
 62
     1
 10
73.0367776491
 20
43.5291748223
 30
0.0
 40
0.1279999999999971
 50
270.0
 51
329.5344550805
  0
ARC
  5
A2
  8
DV1_0
  6
HIDDEN2
 62
     1
 10
76.127195839
 20
43.5291748223
 30
0.0
 40
0.1279999999999992
 50
210.4655449195
 51
270.0
  0
LINE
  5
A3
  8
DV1_0
  6
HIDDEN2
 62
     1
 10
76.0168682595
 20
43.4642762461
 30
0.0
 11
75.8796591645
 21
43.6975317075
 31
0.0
  0
LINE
  5
A4
  8
DV1_0
  6
HIDDEN2
 62
     1
 10
73.2843143236
 20
43.6975317075
 30
0.0
 11
73.1471052286
 21
43.4642762461
 31
0.0
  0
ARC
  5
A5
  8
DV1_0
  6
HIDDEN2
 62
     1
 10
73.173986744
 20
43.7624302837
 30
0.0
 40
0.1279999999999415
 50
329.5344550805
 51
0.0
  0
ARC
  5
A6
  8
DV1_0
  6
HIDDEN2
 62
     1
 10
75.989986744
 20
43.7624302837
 30
0.0
 40
0.1279999999999428
 50
180.0
 51
210.4655449195
  0
LINE
  5
A7
  8
DV1_0
  6
CONTINUOUS
 62
     7
 10
73.301986744
 20
67.1557348223
 30
0.0
 11
73.301986744
 21
63.5611748223
 31
0.0
  0
LINE
  5
A8
  8
DV1_0
  6
HIDDEN2
 62
     1
 10
73.301986744
 20
63.5611748223
 30
0.0
 11
73.301986744
 21
43.7624302837
 31
0.0
  0
LINE
  5
A9
  8
DV1_0
  6
HIDDEN2
 62
     1
 10
75.861986744
 20
43.7624302837
 30
0.0
 11
75.861986744
 21
63.5611748223
 31
0.0
  0
LINE
  5
AA
  8
DV1_0
  6
CONTINUOUS
 62
     7
 10
75.861986744
 20
63.5611748223
 30
0.0
 11
75.861986744
 21
67.1557348223
 31
0.0
  0
LINE
  5
AB
  8
DV1_0
  6
CONTINUOUS
 62
     7
 10
75.861986744
 20
67.1557348223
 30
0.0
 11
75.616546744
 21
67.4011748223
 31
0.0
  0
LINE
  5
AC
  8
DV1_0
  6
CONTINUOUS
 62
     7
 10
73.547426744
 20
67.4011748223
 30
0.0
 11
73.301986744
 21
67.1557348223
 31
0.0
  0
LINE
  5
AD
  8
DV1_0
  6
CONTINUOUS
 62
     7
 10
72.2562430025
 20
66.7611748224
 30
0.0
 11
73.301986744
 21
66.7611748224
 31
0.0
  0
LINE
  5
AE
  8
DV1_0
  6
CONTINUOUS
 62
     7
 10
75.861986744
 20
66.7611748224
 30
0.0
 11
76.2677304856
 21
66.7611748224
 31
0.0
  0
LINE
  5
AF
  8
DV1_0
  6
CONTINUOUS
 62
     7
 10
75.9978053375
 20
65.8011748224
 30
0.0
 11
75.861986744
 21
65.8011748224
 31
0.0
  0
LINE
  5
B0
  8
DV1_0
  6
CONTINUOUS
 62
     7
 10
73.301986744
 20
65.8011748224
 30
0.0
 11
72.5261681506
 21
65.8011748224
 31
0.0
  0
POLYLINE
  5
B1
  8
DV1_0
  6
CONTINUOUS
 62
     7
 66
     1
 10
0.0
 20
0.0
 30
0.0
  0
VERTEX
  5
2C0
  8
DV1_0
  6
CONTINUOUS
 62
     7
 10
75.9978053375
 20
65.8011748224
 30
0.0
  0
VERTEX
  5
2C1
  8
DV1_0
  6
CONTINUOUS
 62
     7
 10
76.001236171
 20
65.8134050877
 30
0.0
  0
VERTEX
  5
2C2
  8
DV1_0
  6
CONTINUOUS
 62
     7
 10
76.0046759257
 20
65.825583883
 30
0.0
  0
VERTEX
  5
2C3
  8
DV1_0
  6
CONTINUOUS
 62
     7
 10
76.0081248134
 20
65.8377099862
 30
0.0
  0
VERTEX
  5
2C4
  8
DV1_0
  6
CONTINUOUS
 62
     7
 10
76.0115830459
 20
65.8497821752
 30
0.0
  0
VERTEX
  5
2C5
  8
DV1_0
  6
CONTINUOUS
 62
     7
 10
76.0150508351
 20
65.8617992279
 30
0.0
  0
VERTEX
  5
2C6
  8
DV1_0
  6
CONTINUOUS
 62
     7
 10
76.0185283927
 20
65.8737599222
 30
0.0
  0
VERTEX
  5
2C7
  8
DV1_0
  6
CONTINUOUS
 62
     7
 10
76.0220159306
 20
65.885663036
 30
0.0
  0
VERTEX
  5
2C8
  8
DV1_0
  6
CONTINUOUS
 62
     7
 10
76.0255136606
 20
65.8975073472
 30
0.0
  0
VERTEX
  5
2C9
  8
DV1_0
  6
CONTINUOUS
 62
     7
 10
76.0290217946
 20
65.9092916336
 30
0.0
  0
VERTEX
  5
2CA
  8
DV1_0
  6
CONTINUOUS
 62
     7
 10
76.0325405444
 20
65.9210146732
 30
0.0
  0
VERTEX
  5
2CB
  8
DV1_0
  6
CONTINUOUS
 62
     7
 10
76.0360701217
 20
65.9326752438
 30
0.0
  0
VERTEX
  5
2CC
  8
DV1_0
  6
CONTINUOUS
 62
     7
 10
76.0396107385
 20
65.9442721234
 30
0.0
  0
VERTEX
  5
2CD
  8
DV1_0
  6
CONTINUOUS
 62
     7
 10
76.0431626065
 20
65.9558040898
 30
0.0
  0
VERTEX
  5
2CE
  8
DV1_0
  6
CONTINUOUS
 62
     7
 10
76.0467259376
 20
65.967269921
 30
0.0
  0
VERTEX
  5
2CF
  8
DV1_0
  6
CONTINUOUS
 62
     7
 10
76.0503009436
 20
65.9786683947
 30
0.0
  0
VERTEX
  5
2D0
  8
DV1_0
  6
CONTINUOUS
 62
     7
 10
76.0538878363
 20
65.989998289
 30
0.0
  0
VERTEX
  5
2D1
  8
DV1_0
  6
CONTINUOUS
 62
     7
 10
76.0574868276
 20
66.0012583817
 30
0.0
  0
VERTEX
  5
2D2
  8
DV1_0
  6
CONTINUOUS
 62
     7
 10
76.0610981292
 20
66.0124474507
 30
0.0
  0
VERTEX
  5
2D3
  8
DV1_0
  6
CONTINUOUS
 62
     7
 10
76.064721953
 20
66.0235642739
 30
0.0
  0
VERTEX
  5
2D4
  8
DV1_0
  6
CONTINUOUS
 62
     7
 10
76.0683585109
 20
66.0346076292
 30
0.0
  0
VERTEX
  5
2D5
  8
DV1_0
  6
CONTINUOUS
 62
     7
 10
76.0720080146
 20
66.0455762944
 30
0.0
  0
VERTEX
  5
2D6
  8
DV1_0
  6
CONTINUOUS
 62
     7
 10
76.0756706759
 20
66.0564690476
 30
0.0
  0
VERTEX
  5
2D7
  8
DV1_0
  6
CONTINUOUS
 62
     7
 10
76.0793467068
 20
66.0672846665
 30
0.0
  0
VERTEX
  5
2D8
  8
DV1_0
  6
CONTINUOUS
 62
     7
 10
76.0830363189
 20
66.078021929
 30
0.0
  0
VERTEX
  5
2D9
  8
DV1_0
  6
CONTINUOUS
 62
     7
 10
76.0867397243
 20
66.0886796131
 30
0.0
  0
VERTEX
  5
2DA
  8
DV1_0
  6
CONTINUOUS
 62
     7
 10
76.0904571345
 20
66.0992564967
 30
0.0
  0
VERTEX
  5
2DB
  8
DV1_0
  6
CONTINUOUS
 62
     7
 10
76.0941887616
 20
66.1097513576
 30
0.0
  0
VERTEX
  5
2DC
  8
DV1_0
  6
CONTINUOUS
 62
     7
 10
76.0979348173
 20
66.1201629737
 30
0.0
  0
VERTEX
  5
2DD
  8
DV1_0
  6
CONTINUOUS
 62
     7
 10
76.1016955135
 20
66.130490123
 30
0.0
  0
VERTEX
  5
2DE
  8
DV1_0
  6
CONTINUOUS
 62
     7
 10
76.1054710619
 20
66.1407315833
 30
0.0
  0
VERTEX
  5
2DF
  8
DV1_0
  6
CONTINUOUS
 62
     7
 10
76.1092614334
 20
66.1508875227
 30
0.0
  0
VERTEX
  5
2E0
  8
DV1_0
  6
CONTINUOUS
 62
     7
 10
76.113066781
 20
66.1609570592
 30
0.0
  0
VERTEX
  5
2E1
  8
DV1_0
  6
CONTINUOUS
 62
     7
 10
76.1168875894
 20
66.1709373953
 30
0.0
  0
VERTEX
  5
2E2
  8
DV1_0
  6
CONTINUOUS
 62
     7
 10
76.1207243437
 20
66.1808257337
 30
0.0
  0
VERTEX
  5
2E3
  8
DV1_0
  6
CONTINUOUS
 62
     7
 10
76.1245775285
 20
66.1906192769
 30
0.0
  0
VERTEX
  5
2E4
  8
DV1_0
  6
CONTINUOUS
 62
     7
 10
76.1284476288
 20
66.2003152275
 30
0.0
  0
VERTEX
  5
2E5
  8
DV1_0
  6
CONTINUOUS
 62
     7
 10
76.1323351295
 20
66.2099107881
 30
0.0
  0
VERTEX
  5
2E6
  8
DV1_0
  6
CONTINUOUS
 62
     7
 10
76.1362405154
 20
66.2194031613
 30
0.0
  0
VERTEX
  5
2E7
  8
DV1_0
  6
CONTINUOUS
 62
     7
 10
76.1401642714
 20
66.2287895497
 30
0.0
  0
VERTEX
  5
2E8
  8
DV1_0
  6
CONTINUOUS
 62
     7
 10
76.1441068824
 20
66.2380671559
 30
0.0
  0
VERTEX
  5
2E9
  8
DV1_0
  6
CONTINUOUS
 62
     7
 10
76.1480688332
 20
66.2472331824
 30
0.0
  0
VERTEX
  5
2EA
  8
DV1_0
  6
CONTINUOUS
 62
     7
 10
76.1520506088
 20
66.2562848319
 30
0.0
  0
VERTEX
  5
2EB
  8
DV1_0
  6
CONTINUOUS
 62
     7
 10
76.1560526939
 20
66.2652193069
 30
0.0
  0
VERTEX
  5
2EC
  8
DV1_0
  6
CONTINUOUS
 62
     7
 10
76.1600755734
 20
66.27403381
 30
0.0
  0
VERTEX
  5
2ED
  8
DV1_0
  6
CONTINUOUS
 62
     7
 10
76.1641197323
 20
66.2827255438
 30
0.0
  0
VERTEX
  5
2EE
  8
DV1_0
  6
CONTINUOUS
 62
     7
 10
76.1681856553
 20
66.2912917109
 30
0.0
  0
VERTEX
  5
2EF
  8
DV1_0
  6
CONTINUOUS
 62
     7
 10
76.1722738274
 20
66.299729514
 30
0.0
  0
VERTEX
  5
2F0
  8
DV1_0
  6
CONTINUOUS
 62
     7
 10
76.1763847334
 20
66.3080361555
 30
0.0
  0
VERTEX
  5
2F1
  8
DV1_0
  6
CONTINUOUS
 62
     7
 10
76.1805188582
 20
66.316208838
 30
0.0
  0
VERTEX
  5
2F2
  8
DV1_0
  6
CONTINUOUS
 62
     7
 10
76.1846766866
 20
66.3242447642
 30
0.0
  0
VERTEX
  5
2F3
  8
DV1_0
  6
CONTINUOUS
 62
     7
 10
76.1888587036
 20
66.3321411367
 30
0.0
  0
VERTEX
  5
2F4
  8
DV1_0
  6
CONTINUOUS
 62
     7
 10
76.193065394
 20
66.3398951579
 30
0.0
  0
VERTEX
  5
2F5
  8
DV1_0
  6
CONTINUOUS
 62
     7
 10
76.1972972426
 20
66.3475040306
 30
0.0
  0
VERTEX
  5
2F6
  8
DV1_0
  6
CONTINUOUS
 62
     7
 10
76.2015547344
 20
66.3549649573
 30
0.0
  0
VERTEX
  5
2F7
  8
DV1_0
  6
CONTINUOUS
 62
     7
 10
76.2058383542
 20
66.3622751406
 30
0.0
  0
VERTEX
  5
2F8
  8
DV1_0
  6
CONTINUOUS
 62
     7
 10
76.2101485868
 20
66.3694317831
 30
0.0
  0
VERTEX
  5
2F9
  8
DV1_0
  6
CONTINUOUS
 62
     7
 10
76.2144859172
 20
66.3764320873
 30
0.0
  0
VERTEX
  5
2FA
  8
DV1_0
  6
CONTINUOUS
 62
     7
 10
76.2188508301
 20
66.3832732559
 30
0.0
  0
VERTEX
  5
2FB
  8
DV1_0
  6
CONTINUOUS
 62
     7
 10
76.2232438106
 20
66.3899524915
 30
0.0
  0
VERTEX
  5
2FC
  8
DV1_0
  6
CONTINUOUS
 62
     7
 10
76.2276653434
 20
66.3964669966
 30
0.0
  0
VERTEX
  5
2FD
  8
DV1_0
  6
CONTINUOUS
 62
     7
 10
76.2321068215
 20
66.4027963029
 30
0.0
  0
VERTEX
  5
2FE
  8
DV1_0
  6
CONTINUOUS
 62
     7
 10
76.2365593622
 20
66.4089200672
 30
0.0
  0
VERTEX
  5
2FF
  8
DV1_0
  6
CONTINUOUS
 62
     7
 10
76.2410230369
 20
66.4148356796
 30
0.0
  0
VERTEX
  5
300
  8
DV1_0
  6
CONTINUOUS
 62
     7
 10
76.2454979169
 20
66.4205405304
 30
0.0
  0
VERTEX
  5
301
  8
DV1_0
  6
CONTINUOUS
 62
     7
 10
76.2499840736
 20
66.4260320097
 30
0.0
  0
VERTEX
  5
302
  8
DV1_0
  6
CONTINUOUS
 62
     7
 10
76.2544815783
 20
66.4313075077
 30
0.0
  0
VERTEX
  5
303
  8
DV1_0
  6
CONTINUOUS
 62
     7
 10
76.2589905023
 20
66.4363644145
 30
0.0
  0
VERTEX
  5
304
  8
DV1_0
  6
CONTINUOUS
 62
     7
 10
76.263510917
 20
66.4412001203
 30
0.0
  0
VERTEX
  5
305
  8
DV1_0
  6
CONTINUOUS
 62
     7
 10
76.2680428939
 20
66.4458120154
 30
0.0
  0
VERTEX
  5
306
  8
DV1_0
  6
CONTINUOUS
 62
     7
 10
76.2725865041
 20
66.4501974897
 30
0.0
  0
VERTEX
  5
307
  8
DV1_0
  6
CONTINUOUS
 62
     7
 10
76.2771418191
 20
66.4543539336
 30
0.0
  0
VERTEX
  5
308
  8
DV1_0
  6
CONTINUOUS
 62
     7
 10
76.2817089102
 20
66.4582787372
 30
0.0
  0
VERTEX
  5
309
  8
DV1_0
  6
CONTINUOUS
 62
     7
 10
76.2862878488
 20
66.4619692906
 30
0.0
  0
VERTEX
  5
30A
  8
DV1_0
  6
CONTINUOUS
 62
     7
 10
76.2908787062
 20
66.4654229841
 30
0.0
  0
VERTEX
  5
30B
  8
DV1_0
  6
CONTINUOUS
 62
     7
 10
76.2954815537
 20
66.4686372077
 30
0.0
  0
VERTEX
  5
30C
  8
DV1_0
  6
CONTINUOUS
 62
     7
 10
76.3000966189
 20
66.4716095224
 30
0.0
  0
VERTEX
  5
30D
  8
DV1_0
  6
CONTINUOUS
 62
     7
 10
76.304724167
 20
66.474337555
 30
0.0
  0
VERTEX
  5
30E
  8
DV1_0
  6
CONTINUOUS
 62
     7
 10
76.3093643265
 20
66.4768187947
 30
0.0
  0
VERTEX
  5
30F
  8
DV1_0
  6
CONTINUOUS
 62
     7
 10
76.3140172255
 20
66.4790507309
 30
0.0
  0
VERTEX
  5
310
  8
DV1_0
  6
CONTINUOUS
 62
     7
 10
76.3186829924
 20
66.4810308529
 30
0.0
  0
VERTEX
  5
311
  8
DV1_0
  6
CONTINUOUS
 62
     7
 10
76.3233617555
 20
66.4827566501
 30
0.0
  0
VERTEX
  5
312
  8
DV1_0
  6
CONTINUOUS
 62
     7
 10
76.3280536431
 20
66.4842256116
 30
0.0
  0
VERTEX
  5
313
  8
DV1_0
  6
CONTINUOUS
 62
     7
 10
76.3327593099
 20
66.4854347585
 30
0.0
  0
VERTEX
  5
314
  8
DV1_0
  6
CONTINUOUS
 62
     7
 10
76.3374801461
 20
66.4863796185
 30
0.0
  0
VERTEX
  5
315
  8
DV1_0
  6
CONTINUOUS
 62
     7
 10
76.3422119598
 20
66.4870593787
 30
0.0
  0
VERTEX
  5
316
  8
DV1_0
  6
CONTINUOUS
 62
     7
 10
76.3469498216
 20
66.4874737889
 30
0.0
  0
VERTEX
  5
317
  8
DV1_0
  6
CONTINUOUS
 62
     7
 10
76.3516888026
 20
66.4876225988
 30
0.0
  0
VERTEX
  5
318
  8
DV1_0
  6
CONTINUOUS
 62
     7
 10
76.3564239736
 20
66.4875055583
 30
0.0
  0
VERTEX
  5
319
  8
DV1_0
  6
CONTINUOUS
 62
     7
 10
76.3611504053
 20
66.4871224171
 30
0.0
  0
VERTEX
  5
31A
  8
DV1_0
  6
CONTINUOUS
 62
     7
 10
76.3658631687
 20
66.4864729248
 30
0.0
  0
VERTEX
  5
31B
  8
DV1_0
  6
CONTINUOUS
 62
     7
 10
76.3705618228
 20
66.4855591939
 30
0.0
  0
VERTEX
  5
31C
  8
DV1_0
  6
CONTINUOUS
 62
     7
 10
76.375249276
 20
66.4843849785
 30
0.0
  0
VERTEX
  5
31D
  8
DV1_0
  6
CONTINUOUS
 62
     7
 10
76.3799256236
 20
66.4829524907
 30
0.0
  0
VERTEX
  5
31E
  8
DV1_0
  6
CONTINUOUS
 62
     7
 10
76.3845909605
 20
66.4812639427
 30
0.0
  0
VERTEX
  5
31F
  8
DV1_0
  6
CONTINUOUS
 62
     7
 10
76.3892453821
 20
66.4793215469
 30
0.0
  0
VERTEX
  5
320
  8
DV1_0
  6
CONTINUOUS
 62
     7
 10
76.3938889832
 20
66.4771275155
 30
0.0
  0
VERTEX
  5
321
  8
DV1_0
  6
CONTINUOUS
 62
     7
 10
76.3985218592
 20
66.4746840607
 30
0.0
  0
VERTEX
  5
322
  8
DV1_0
  6
CONTINUOUS
 62
     7
 10
76.4031441052
 20
66.4719933947
 30
0.0
  0
VERTEX
  5
323
  8
DV1_0
  6
CONTINUOUS
 62
     7
 10
76.4077558161
 20
66.4690577298
 30
0.0
  0
VERTEX
  5
324
  8
DV1_0
  6
CONTINUOUS
 62
     7
 10
76.4123570873
 20
66.4658792782
 30
0.0
  0
VERTEX
  5
325
  8
DV1_0
  6
CONTINUOUS
 62
     7
 10
76.4169480137
 20
66.4624602522
 30
0.0
  0
VERTEX
  5
326
  8
DV1_0
  6
CONTINUOUS
 62
     7
 10
76.4215286906
 20
66.458802864
 30
0.0
  0
VERTEX
  5
327
  8
DV1_0
  6
CONTINUOUS
 62
     7
 10
76.4260992131
 20
66.4549093259
 30
0.0
  0
VERTEX
  5
328
  8
DV1_0
  6
CONTINUOUS
 62
     7
 10
76.4306596762
 20
66.45078185
 30
0.0
  0
VERTEX
  5
329
  8
DV1_0
  6
CONTINUOUS
 62
     7
 10
76.4352101752
 20
66.4464226487
 30
0.0
  0
VERTEX
  5
32A
  8
DV1_0
  6
CONTINUOUS
 62
     7
 10
76.4397515021
 20
66.4418318666
 30
0.0
  0
VERTEX
  5
32B
  8
DV1_0
  6
CONTINUOUS
 62
     7
 10
76.4442838057
 20
66.4370111271
 30
0.0
  0
VERTEX
  5
32C
  8
DV1_0
  6
CONTINUOUS
 62
     7
 10
76.4488062158
 20
66.4319648603
 30
0.0
  0
VERTEX
  5
32D
  8
DV1_0
  6
CONTINUOUS
 62
     7
 10
76.4533178625
 20
66.4266974962
 30
0.0
  0
VERTEX
  5
32E
  8
DV1_0
  6
CONTINUOUS
 62
     7
 10
76.4578178756
 20
66.4212134651
 30
0.0
  0
VERTEX
  5
32F
  8
DV1_0
  6
CONTINUOUS
 62
     7
 10
76.462305385
 20
66.4155171968
 30
0.0
  0
VERTEX
  5
330
  8
DV1_0
  6
CONTINUOUS
 62
     7
 10
76.4667795208
 20
66.4096131216
 30
0.0
  0
VERTEX
  5
331
  8
DV1_0
  6
CONTINUOUS
 62
     7
 10
76.4712394127
 20
66.4035056696
 30
0.0
  0
VERTEX
  5
332
  8
DV1_0
  6
CONTINUOUS
 62
     7
 10
76.4756841908
 20
66.3971992708
 30
0.0
  0
VERTEX
  5
333
  8
DV1_0
  6
CONTINUOUS
 62
     7
 10
76.480112985
 20
66.3906983553
 30
0.0
  0
VERTEX
  5
334
  8
DV1_0
  6
CONTINUOUS
 62
     7
 10
76.4845249251
 20
66.3840073532
 30
0.0
  0
VERTEX
  5
335
  8
DV1_0
  6
CONTINUOUS
 62
     7
 10
76.4889191412
 20
66.3771306946
 30
0.0
  0
VERTEX
  5
336
  8
DV1_0
  6
CONTINUOUS
 62
     7
 10
76.4932947631
 20
66.3700728096
 30
0.0
  0
VERTEX
  5
337
  8
DV1_0
  6
CONTINUOUS
 62
     7
 10
76.4976509207
 20
66.3628381283
 30
0.0
  0
VERTEX
  5
338
  8
DV1_0
  6
CONTINUOUS
 62
     7
 10
76.501986744
 20
66.3554310808
 30
0.0
  0
SEQEND
  5
417
  8
DV1_0
  6
CONTINUOUS
 62
     7
  0
LINE
  5
B2
  8
DV1_0
  6
CONTINUOUS
 62
     7
 10
75.9978053375
 20
63.5611748224
 30
0.0
 11
75.9978053375
 21
65.8011748224
 31
0.0
  0
LINE
  5
B3
  8
DV1_0
  6
CONTINUOUS
 62
     7
 10
76.501986744
 20
66.3554310808
 30
0.0
 11
76.501986744
 21
63.5611748224
 31
0.0
  0
LINE
  5
B4
  8
DV1_0
  6
CONTINUOUS
 62
     7
 10
72.5261681506
 20
65.8011748224
 30
0.0
 11
72.5261681506
 21
63.5611748224
 31
0.0
  0
POLYLINE
  5
B5
  8
DV1_0
  6
CONTINUOUS
 62
     7
 66
     1
 10
0.0
 20
0.0
 30
0.0
  0
VERTEX
  5
339
  8
DV1_0
  6
CONTINUOUS
 62
     7
 10
72.021986744
 20
66.3554310808
 30
0.0
  0
VERTEX
  5
33A
  8
DV1_0
  6
CONTINUOUS
 62
     7
 10
72.0262602558
 20
66.3627324586
 30
0.0
  0
VERTEX
  5
33B
  8
DV1_0
  6
CONTINUOUS
 62
     7
 10
72.0305593611
 20
66.369875005
 30
0.0
  0
VERTEX
  5
33C
  8
DV1_0
  6
CONTINUOUS
 62
     7
 10
72.0348827373
 20
66.3768533728
 30
0.0
  0
VERTEX
  5
33D
  8
DV1_0
  6
CONTINUOUS
 62
     7
 10
72.0392290614
 20
66.3836622145
 30
0.0
  0
VERTEX
  5
33E
  8
DV1_0
  6
CONTINUOUS
 62
     7
 10
72.0435970108
 20
66.390296183
 30
0.0
  0
VERTEX
  5
33F
  8
DV1_0
  6
CONTINUOUS
 62
     7
 10
72.0479852625
 20
66.3967499308
 30
0.0
  0
VERTEX
  5
340
  8
DV1_0
  6
CONTINUOUS
 62
     7
 10
72.0523924937
 20
66.4030181107
 30
0.0
  0
VERTEX
  5
341
  8
DV1_0
  6
CONTINUOUS
 62
     7
 10
72.0568173817
 20
66.4090953753
 30
0.0
  0
VERTEX
  5
342
  8
DV1_0
  6
CONTINUOUS
 62
     7
 10
72.0612586037
 20
66.4149763773
 30
0.0
  0
VERTEX
  5
343
  8
DV1_0
  6
CONTINUOUS
 62
     7
 10
72.0657148367
 20
66.4206557693
 30
0.0
  0
VERTEX
  5
344
  8
DV1_0
  6
CONTINUOUS
 62
     7
 10
72.0701847581
 20
66.4261282041
 30
0.0
  0
VERTEX
  5
345
  8
DV1_0
  6
CONTINUOUS
 62
     7
 10
72.0746670449
 20
66.4313883343
 30
0.0
  0
VERTEX
  5
346
  8
DV1_0
  6
CONTINUOUS
 62
     7
 10
72.0791603744
 20
66.4364308126
 30
0.0
  0
VERTEX
  5
347
  8
DV1_0
  6
CONTINUOUS
 62
     7
 10
72.0836634238
 20
66.4412502917
 30
0.0
  0
VERTEX
  5
348
  8
DV1_0
  6
CONTINUOUS
 62
     7
 10
72.0881748703
 20
66.4458414242
 30
0.0
  0
VERTEX
  5
349
  8
DV1_0
  6
CONTINUOUS
 62
     7
 10
72.0926938434
 20
66.4502019684
 30
0.0
  0
VERTEX
  5
34A
  8
DV1_0
  6
CONTINUOUS
 62
     7
 10
72.0972203936
 20
66.4543320596
 30
0.0
  0
VERTEX
  5
34B
  8
DV1_0
  6
CONTINUOUS
 62
     7
 10
72.1017545796
 20
66.4582299162
 30
0.0
  0
VERTEX
  5
34C
  8
DV1_0
  6
CONTINUOUS
 62
     7
 10
72.1062964599
 20
66.4618937562
 30
0.0
  0
VERTEX
  5
34D
  8
DV1_0
  6
CONTINUOUS
 62
     7
 10
72.1108460932
 20
66.465321798
 30
0.0
  0
VERTEX
  5
34E
  8
DV1_0
  6
CONTINUOUS
 62
     7
 10
72.1154035379
 20
66.4685122598
 30
0.0
  0
VERTEX
  5
34F
  8
DV1_0
  6
CONTINUOUS
 62
     7
 10
72.1199688527
 20
66.4714633597
 30
0.0
  0
VERTEX
  5
350
  8
DV1_0
  6
CONTINUOUS
 62
     7
 10
72.1245420962
 20
66.4741733161
 30
0.0
  0
VERTEX
  5
351
  8
DV1_0
  6
CONTINUOUS
 62
     7
 10
72.129123327
 20
66.4766403471
 30
0.0
  0
VERTEX
  5
352
  8
DV1_0
  6
CONTINUOUS
 62
     7
 10
72.1337126036
 20
66.478862671
 30
0.0
  0
VERTEX
  5
353
  8
DV1_0
  6
CONTINUOUS
 62
     7
 10
72.1383099845
 20
66.480838506
 30
0.0
  0
VERTEX
  5
354
  8
DV1_0
  6
CONTINUOUS
 62
     7
 10
72.1429155285
 20
66.4825660704
 30
0.0
  0
VERTEX
  5
355
  8
DV1_0
  6
CONTINUOUS
 62
     7
 10
72.1475292941
 20
66.4840435823
 30
0.0
  0
VERTEX
  5
356
  8
DV1_0
  6
CONTINUOUS
 62
     7
 10
72.1521513399
 20
66.4852692601
 30
0.0
  0
VERTEX
  5
357
  8
DV1_0
  6
CONTINUOUS
 62
     7
 10
72.1567817243
 20
66.4862413218
 30
0.0
  0
VERTEX
  5
358
  8
DV1_0
  6
CONTINUOUS
 62
     7
 10
72.1614240078
 20
66.4869539943
 30
0.0
  0
VERTEX
  5
359
  8
DV1_0
  6
CONTINUOUS
 62
     7
 10
72.1660801319
 20
66.4874033877
 30
0.0
  0
VERTEX
  5
35A
  8
DV1_0
  6
CONTINUOUS
 62
     7
 10
72.1707477269
 20
66.4875905453
 30
0.0
  0
VERTEX
  5
35B
  8
DV1_0
  6
CONTINUOUS
 62
     7
 10
72.1754244233
 20
66.4875165106
 30
0.0
  0
VERTEX
  5
35C
  8
DV1_0
  6
CONTINUOUS
 62
     7
 10
72.1801078516
 20
66.4871823269
 30
0.0
  0
VERTEX
  5
35D
  8
DV1_0
  6
CONTINUOUS
 62
     7
 10
72.1847956423
 20
66.4865890376
 30
0.0
  0
VERTEX
  5
35E
  8
DV1_0
  6
CONTINUOUS
 62
     7
 10
72.1894854257
 20
66.485737686
 30
0.0
  0
VERTEX
  5
35F
  8
DV1_0
  6
CONTINUOUS
 62
     7
 10
72.1941748325
 20
66.4846293157
 30
0.0
  0
VERTEX
  5
360
  8
DV1_0
  6
CONTINUOUS
 62
     7
 10
72.1988614929
 20
66.4832649698
 30
0.0
  0
VERTEX
  5
361
  8
DV1_0
  6
CONTINUOUS
 62
     7
 10
72.2035430375
 20
66.4816456919
 30
0.0
  0
VERTEX
  5
362
  8
DV1_0
  6
CONTINUOUS
 62
     7
 10
72.2082170968
 20
66.4797725252
 30
0.0
  0
VERTEX
  5
363
  8
DV1_0
  6
CONTINUOUS
 62
     7
 10
72.2128813012
 20
66.4776465132
 30
0.0
  0
VERTEX
  5
364
  8
DV1_0
  6
CONTINUOUS
 62
     7
 10
72.2175332811
 20
66.4752686993
 30
0.0
  0
VERTEX
  5
365
  8
DV1_0
  6
CONTINUOUS
 62
     7
 10
72.222170667
 20
66.4726401268
 30
0.0
  0
VERTEX
  5
366
  8
DV1_0
  6
CONTINUOUS
 62
     7
 10
72.2267910894
 20
66.4697618392
 30
0.0
  0
VERTEX
  5
367
  8
DV1_0
  6
CONTINUOUS
 62
     7
 10
72.2313945231
 20
66.4666395128
 30
0.0
  0
VERTEX
  5
368
  8
DV1_0
  6
CONTINUOUS
 62
     7
 10
72.2359826458
 20
66.4632800372
 30
0.0
  0
VERTEX
  5
369
  8
DV1_0
  6
CONTINUOUS
 62
     7
 10
72.2405556423
 20
66.4596862749
 30
0.0
  0
VERTEX
  5
36A
  8
DV1_0
  6
CONTINUOUS
 62
     7
 10
72.2451136975
 20
66.4558610886
 30
0.0
  0
VERTEX
  5
36B
  8
DV1_0
  6
CONTINUOUS
 62
     7
 10
72.2496569961
 20
66.4518073408
 30
0.0
  0
VERTEX
  5
36C
  8
DV1_0
  6
CONTINUOUS
 62
     7
 10
72.2541857231
 20
66.4475278944
 30
0.0
  0
VERTEX
  5
36D
  8
DV1_0
  6
CONTINUOUS
 62
     7
 10
72.2587000631
 20
66.4430256118
 30
0.0
  0
VERTEX
  5
36E
  8
DV1_0
  6
CONTINUOUS
 62
     7
 10
72.2632002011
 20
66.4383033558
 30
0.0
  0
VERTEX
  5
36F
  8
DV1_0
  6
CONTINUOUS
 62
     7
 10
72.2676863218
 20
66.4333639889
 30
0.0
  0
VERTEX
  5
370
  8
DV1_0
  6
CONTINUOUS
 62
     7
 10
72.2721586101
 20
66.4282103739
 30
0.0
  0
VERTEX
  5
371
  8
DV1_0
  6
CONTINUOUS
 62
     7
 10
72.2766172508
 20
66.4228453733
 30
0.0
  0
VERTEX
  5
372
  8
DV1_0
  6
CONTINUOUS
 62
     7
 10
72.2810624287
 20
66.4172718498
 30
0.0
  0
VERTEX
  5
373
  8
DV1_0
  6
CONTINUOUS
 62
     7
 10
72.2854943287
 20
66.4114926661
 30
0.0
  0
VERTEX
  5
374
  8
DV1_0
  6
CONTINUOUS
 62
     7
 10
72.2899131355
 20
66.4055106848
 30
0.0
  0
VERTEX
  5
375
  8
DV1_0
  6
CONTINUOUS
 62
     7
 10
72.2943190339
 20
66.3993287684
 30
0.0
  0
VERTEX
  5
376
  8
DV1_0
  6
CONTINUOUS
 62
     7
 10
72.2987101368
 20
66.3929519456
 30
0.0
  0
VERTEX
  5
377
  8
DV1_0
  6
CONTINUOUS
 62
     7
 10
72.3030840733
 20
66.3863866074
 30
0.0
  0
VERTEX
  5
378
  8
DV1_0
  6
CONTINUOUS
 62
     7
 10
72.307440303
 20
66.3796376606
 30
0.0
  0
VERTEX
  5
379
  8
DV1_0
  6
CONTINUOUS
 62
     7
 10
72.3117782853
 20
66.372710012
 30
0.0
  0
VERTEX
  5
37A
  8
DV1_0
  6
CONTINUOUS
 62
     7
 10
72.3160974798
 20
66.3656085682
 30
0.0
  0
VERTEX
  5
37B
  8
DV1_0
  6
CONTINUOUS
 62
     7
 10
72.3203973458
 20
66.3583382361
 30
0.0
  0
VERTEX
  5
37C
  8
DV1_0
  6
CONTINUOUS
 62
     7
 10
72.324677343
 20
66.3509039223
 30
0.0
  0
VERTEX
  5
37D
  8
DV1_0
  6
CONTINUOUS
 62
     7
 10
72.3289369308
 20
66.3433105336
 30
0.0
  0
VERTEX
  5
37E
  8
DV1_0
  6
CONTINUOUS
 62
     7
 10
72.3331755687
 20
66.3355629768
 30
0.0
  0
VERTEX
  5
37F
  8
DV1_0
  6
CONTINUOUS
 62
     7
 10
72.3373927161
 20
66.3276661585
 30
0.0
  0
VERTEX
  5
380
  8
DV1_0
  6
CONTINUOUS
 62
     7
 10
72.3415878327
 20
66.3196249856
 30
0.0
  0
VERTEX
  5
381
  8
DV1_0
  6
CONTINUOUS
 62
     7
 10
72.3457603779
 20
66.3114443647
 30
0.0
  0
VERTEX
  5
382
  8
DV1_0
  6
CONTINUOUS
 62
     7
 10
72.3499098111
 20
66.3031292026
 30
0.0
  0
VERTEX
  5
383
  8
DV1_0
  6
CONTINUOUS
 62
     7
 10
72.3540355919
 20
66.2946844061
 30
0.0
  0
VERTEX
  5
384
  8
DV1_0
  6
CONTINUOUS
 62
     7
 10
72.3581371798
 20
66.2861148818
 30
0.0
  0
VERTEX
  5
385
  8
DV1_0
  6
CONTINUOUS
 62
     7
 10
72.3622164526
 20
66.2774217366
 30
0.0
  0
VERTEX
  5
386
  8
DV1_0
  6
CONTINUOUS
 62
     7
 10
72.3662758866
 20
66.2686042957
 30
0.0
  0
VERTEX
  5
387
  8
DV1_0
  6
CONTINUOUS
 62
     7
 10
72.3703158382
 20
66.2596647933
 30
0.0
  0
VERTEX
  5
388
  8
DV1_0
  6
CONTINUOUS
 62
     7
 10
72.3743366642
 20
66.2506054639
 30
0.0
  0
VERTEX
  5
389
  8
DV1_0
  6
CONTINUOUS
 62
     7
 10
72.378338721
 20
66.2414285416
 30
0.0
  0
VERTEX
  5
38A
  8
DV1_0
  6
CONTINUOUS
 62
     7
 10
72.3823223654
 20
66.2321362609
 30
0.0
  0
VERTEX
  5
38B
  8
DV1_0
  6
CONTINUOUS
 62
     7
 10
72.386287954
 20
66.222730856
 30
0.0
  0
VERTEX
  5
38C
  8
DV1_0
  6
CONTINUOUS
 62
     7
 10
72.3902358434
 20
66.2132145613
 30
0.0
  0
VERTEX
  5
38D
  8
DV1_0
  6
CONTINUOUS
 62
     7
 10
72.3941663902
 20
66.2035896111
 30
0.0
  0
VERTEX
  5
38E
  8
DV1_0
  6
CONTINUOUS
 62
     7
 10
72.398079951
 20
66.1938582397
 30
0.0
  0
VERTEX
  5
38F
  8
DV1_0
  6
CONTINUOUS
 62
     7
 10
72.4019768824
 20
66.1840226814
 30
0.0
  0
VERTEX
  5
390
  8
DV1_0
  6
CONTINUOUS
 62
     7
 10
72.4058575412
 20
66.1740851706
 30
0.0
  0
VERTEX
  5
391
  8
DV1_0
  6
CONTINUOUS
 62
     7
 10
72.4097222838
 20
66.1640479415
 30
0.0
  0
VERTEX
  5
392
  8
DV1_0
  6
CONTINUOUS
 62
     7
 10
72.413571467
 20
66.1539132285
 30
0.0
  0
VERTEX
  5
393
  8
DV1_0
  6
CONTINUOUS
 62
     7
 10
72.4174054472
 20
66.1436832658
 30
0.0
  0
VERTEX
  5
394
  8
DV1_0
  6
CONTINUOUS
 62
     7
 10
72.4212247297
 20
66.1333602988
 30
0.0
  0
VERTEX
  5
395
  8
DV1_0
  6
CONTINUOUS
 62
     7
 10
72.4250296522
 20
66.1229462033
 30
0.0
  0
VERTEX
  5
396
  8
DV1_0
  6
CONTINUOUS
 62
     7
 10
72.4288203209
 20
66.1124426594
 30
0.0
  0
VERTEX
  5
397
  8
DV1_0
  6
CONTINUOUS
 62
     7
 10
72.432596842
 20
66.1018513473
 30
0.0
  0
VERTEX
  5
398
  8
DV1_0
  6
CONTINUOUS
 62
     7
 10
72.4363593215
 20
66.0911739471
 30
0.0
  0
VERTEX
  5
399
  8
DV1_0
  6
CONTINUOUS
 62
     7
 10
72.4401078655
 20
66.0804121391
 30
0.0
  0
VERTEX
  5
39A
  8
DV1_0
  6
CONTINUOUS
 62
     7
 10
72.4438425801
 20
66.0695676034
 30
0.0
  0
VERTEX
  5
39B
  8
DV1_0
  6
CONTINUOUS
 62
     7
 10
72.4475635715
 20
66.0586420201
 30
0.0
  0
VERTEX
  5
39C
  8
DV1_0
  6
CONTINUOUS
 62
     7
 10
72.4512709457
 20
66.0476370695
 30
0.0
  0
VERTEX
  5
39D
  8
DV1_0
  6
CONTINUOUS
 62
     7
 10
72.4549648088
 20
66.0365544316
 30
0.0
  0
VERTEX
  5
39E
  8
DV1_0
  6
CONTINUOUS
 62
     7
 10
72.458645267
 20
66.0253957868
 30
0.0
  0
VERTEX
  5
39F
  8
DV1_0
  6
CONTINUOUS
 62
     7
 10
72.4623124264
 20
66.0141628151
 30
0.0
  0
VERTEX
  5
3A0
  8
DV1_0
  6
CONTINUOUS
 62
     7
 10
72.465966393
 20
66.0028571967
 30
0.0
  0
VERTEX
  5
3A1
  8
DV1_0
  6
CONTINUOUS
 62
     7
 10
72.469607273
 20
65.9914806117
 30
0.0
  0
VERTEX
  5
3A2
  8
DV1_0
  6
CONTINUOUS
 62
     7
 10
72.4732351724
 20
65.9800347404
 30
0.0
  0
VERTEX
  5
3A3
  8
DV1_0
  6
CONTINUOUS
 62
     7
 10
72.4768501974
 20
65.968521263
 30
0.0
  0
VERTEX
  5
3A4
  8
DV1_0
  6
CONTINUOUS
 62
     7
 10
72.4804524541
 20
65.9569418595
 30
0.0
  0
VERTEX
  5
3A5
  8
DV1_0
  6
CONTINUOUS
 62
     7
 10
72.4840420485
 20
65.9452982101
 30
0.0
  0
VERTEX
  5
3A6
  8
DV1_0
  6
CONTINUOUS
 62
     7
 10
72.4876190869
 20
65.9335919951
 30
0.0
  0
VERTEX
  5
3A7
  8
DV1_0
  6
CONTINUOUS
 62
     7
 10
72.4911836752
 20
65.9218248945
 30
0.0
  0
VERTEX
  5
3A8
  8
DV1_0
  6
CONTINUOUS
 62
     7
 10
72.4947359196
 20
65.9099985886
 30
0.0
  0
VERTEX
  5
3A9
  8
DV1_0
  6
CONTINUOUS
 62
     7
 10
72.4982759262
 20
65.8981147575
 30
0.0
  0
VERTEX
  5
3AA
  8
DV1_0
  6
CONTINUOUS
 62
     7
 10
72.5018038011
 20
65.8861750814
 30
0.0
  0
VERTEX
  5
3AB
  8
DV1_0
  6
CONTINUOUS
 62
     7
 10
72.5053196504
 20
65.8741812404
 30
0.0
  0
VERTEX
  5
3AC
  8
DV1_0
  6
CONTINUOUS
 62
     7
 10
72.5088235802
 20
65.8621349148
 30
0.0
  0
VERTEX
  5
3AD
  8
DV1_0
  6
CONTINUOUS
 62
     7
 10
72.5123156967
 20
65.8500377847
 30
0.0
  0
VERTEX
  5
3AE
  8
DV1_0
  6
CONTINUOUS
 62
     7
 10
72.5157961058
 20
65.8378915302
 30
0.0
  0
VERTEX
  5
3AF
  8
DV1_0
  6
CONTINUOUS
 62
     7
 10
72.5192649138
 20
65.8256978315
 30
0.0
  0
VERTEX
  5
3B0
  8
DV1_0
  6
CONTINUOUS
 62
     7
 10
72.5227222267
 20
65.8134583689
 30
0.0
  0
VERTEX
  5
3B1
  8
DV1_0
  6
CONTINUOUS
 62
     7
 10
72.5261681506
 20
65.8011748224
 30
0.0
  0
SEQEND
  5
416
  8
DV1_0
  6
CONTINUOUS
 62
     7
  0
LINE
  5
B6
  8
DV1_0
  6
CONTINUOUS
 62
     7
 10
72.021986744
 20
66.3554310808
 30
0.0
 11
72.021986744
 21
63.5611748224
 31
0.0
  0
LINE
  5
B7
  8
DV1_0
  6
CONTINUOUS
 62
     7
 10
76.501986744
 20
66.3554310808
 30
0.0
 11
76.2677304856
 21
66.7611748224
 31
0.0
  0
LINE
  5
B8
  8
DV1_0
  6
CONTINUOUS
 62
     7
 10
72.2562430025
 20
66.7611748224
 30
0.0
 11
72.021986744
 21
66.3554310808
 31
0.0
  0
LINE
  5
B9
  8
DV1_0
  6
CONTINUOUS
 62
     7
 10
34.101986744
 20
32.1219831658
 30
0.0
 11
34.101986744
 21
32.2011748223
 31
0.0
  0
LINE
  5
BA
  8
DV1_0
  6
HIDDEN2
 62
     1
 10
34.101986744
 20
32.2011748223
 30
0.0
 11
34.101986744
 21
38.5219831658
 31
0.0
  0
LINE
  5
BB
  8
DV1_0
  6
CONTINUOUS
 62
     7
 10
54.261986744
 20
32.1219831658
 30
0.0
 11
54.261986744
 21
32.2011748223
 31
0.0
  0
LINE
  5
BC
  8
DV1_0
  6
HIDDEN2
 62
     1
 10
54.261986744
 20
32.2011748223
 30
0.0
 11
54.261986744
 21
38.5219831658
 31
0.0
  0
LINE
  5
BD
  8
DV1_0
  6
HIDDEN2
 62
     1
 10
34.101986744
 20
38.5219831658
 30
0.0
 11
39.381986744
 21
38.5219831658
 31
0.0
  0
LINE
  5
BE
  8
DV1_0
  6
CONTINUOUS
 62
     7
 10
34.101986744
 20
32.1219831658
 30
0.0
 11
39.381986744
 21
32.1219831658
 31
0.0
  0
LINE
  5
BF
  8
DV1_0
  6
HIDDEN2
 62
     1
 10
40.021986744
 20
35.0019831658
 30
0.0
 11
35.541986744
 21
35.0019831658
 31
0.0
  0
LINE
  5
C0
  8
DV1_0
  6
HIDDEN2
 62
     1
 10
52.821986744
 20
35.0019831658
 30
0.0
 11
48.341986744
 21
35.0019831658
 31
0.0
  0
LINE
  5
C1
  8
DV1_0
  6
HIDDEN2
 62
     1
 10
46.421986744
 20
36.6019831658
 30
0.0
 11
41.941986744
 21
36.6019831658
 31
0.0
  0
LINE
  5
C2
  8
DV1_0
  6
CONTINUOUS
 62
     7
 10
48.981986744
 20
32.1219831658
 30
0.0
 11
54.261986744
 21
32.1219831658
 31
0.0
  0
LINE
  5
C3
  8
DV1_0
  6
CONTINUOUS
 62
     7
 10
48.981986744
 20
32.1219831658
 30
0.0
 11
39.381986744
 21
32.1219831658
 31
0.0
  0
LINE
  5
C4
  8
DV1_0
  6
CONTINUOUS
 62
     7
 10
39.381986744
 20
32.2011748223
 30
0.0
 11
39.381986744
 21
32.1219831658
 31
0.0
  0
LINE
  5
C5
  8
DV1_0
  6
CONTINUOUS
 62
     7
 10
48.981986744
 20
32.2011748223
 30
0.0
 11
48.981986744
 21
32.1219831658
 31
0.0
  0
LINE
  5
C6
  8
DV1_0
  6
HIDDEN2
 62
     1
 10
35.541986744
 20
35.0019831658
 30
0.0
 11
35.541986744
 21
32.1219831658
 31
0.0
  0
LINE
  5
C7
  8
DV1_0
  6
HIDDEN2
 62
     1
 10
40.021986744
 20
32.1219831658
 30
0.0
 11
40.021986744
 21
34.1211748223
 31
0.0
  0
LINE
  5
C8
  8
DV1_0
  6
HIDDEN2
 62
     1
 10
40.021986744
 20
34.4411748223
 30
0.0
 11
40.021986744
 21
35.0019831658
 31
0.0
  0
LINE
  5
C9
  8
DV1_0
  6
HIDDEN2
 62
     1
 10
48.341986744
 20
35.0019831658
 30
0.0
 11
48.341986744
 21
32.1219831658
 31
0.0
  0
LINE
  5
CA
  8
DV1_0
  6
HIDDEN2
 62
     1
 10
52.821986744
 20
32.1219831658
 30
0.0
 11
52.821986744
 21
35.0019831658
 31
0.0
  0
LINE
  5
CB
  8
DV1_0
  6
HIDDEN2
 62
     1
 10
41.941986744
 20
36.6019831658
 30
0.0
 11
41.941986744
 21
32.1219831658
 31
0.0
  0
LINE
  5
CC
  8
DV1_0
  6
HIDDEN2
 62
     1
 10
46.421986744
 20
32.1219831658
 30
0.0
 11
46.421986744
 21
36.6019831658
 31
0.0
  0
LINE
  5
CD
  8
DV1_0
  6
HIDDEN2
 62
     1
 10
34.101986744
 20
38.5219831658
 30
0.0
 11
34.101986744
 21
40.2011748223
 31
0.0
  0
LINE
  5
CE
  8
DV1_0
  6
HIDDEN2
 62
     1
 10
54.261986744
 20
38.5219831658
 30
0.0
 11
54.261986744
 21
40.2011748223
 31
0.0
  0
LINE
  5
CF
  8
DV1_0
  6
HIDDEN2
 62
     1
 10
48.757986744
 20
32.4419831658
 30
0.0
 11
52.405986744
 21
32.4419831658
 31
0.0
  0
LINE
  5
D0
  8
DV1_0
  6
HIDDEN2
 62
     1
 10
49.547426744
 20
44.6019831658
 30
0.0
 11
51.616546744
 21
44.6019831658
 31
0.0
  0
LINE
  5
D1
  8
DV1_0
  6
HIDDEN2
 62
     1
 10
48.501986744
 20
32.6979831658
 30
0.0
 11
48.757986744
 21
32.4419831658
 31
0.0
  0
LINE
  5
D2
  8
DV1_0
  6
HIDDEN2
 62
     1
 10
52.405986744
 20
32.4419831658
 30
0.0
 11
52.661986744
 21
32.6979831658
 31
0.0
  0
LINE
  5
D3
  8
DV1_0
  6
HIDDEN2
 62
     1
 10
48.501986744
 20
34.8947831658
 30
0.0
 11
48.501986744
 21
32.6979831658
 31
0.0
  0
LINE
  5
D4
  8
DV1_0
  6
HIDDEN2
 62
     1
 10
52.661986744
 20
32.6979831658
 30
0.0
 11
52.661986744
 21
34.8947831658
 31
0.0
  0
LINE
  5
D5
  8
DV1_0
  6
HIDDEN2
 62
     1
 10
52.661986744
 20
34.8947831658
 30
0.0
 11
52.554786744
 21
35.0019831658
 31
0.0
  0
LINE
  5
D6
  8
DV1_0
  6
HIDDEN2
 62
     1
 10
48.609186744
 20
35.0019831658
 30
0.0
 11
48.501986744
 21
34.8947831658
 31
0.0
  0
ARC
  5
D7
  8
DV1_0
  6
HIDDEN2
 62
     1
 10
49.0367776491
 20
35.1299831658
 30
0.0
 40
0.1279999999999976
 50
270.0
 51
329.5344550805
  0
ARC
  5
D8
  8
DV1_0
  6
HIDDEN2
 62
     1
 10
52.127195839
 20
35.1299831658
 30
0.0
 40
0.1279999999999992
 50
210.4655449195
 51
270.0
  0
LINE
  5
D9
  8
DV1_0
  6
HIDDEN2
 62
     1
 10
52.0168682595
 20
35.0650845896
 30
0.0
 11
51.8796591645
 21
35.298340051
 31
0.0
  0
LINE
  5
DA
  8
DV1_0
  6
HIDDEN2
 62
     1
 10
49.2843143236
 20
35.298340051
 30
0.0
 11
49.1471052286
 21
35.0650845896
 31
0.0
  0
ARC
  5
DB
  8
DV1_0
  6
HIDDEN2
 62
     1
 10
49.173986744
 20
35.3632386272
 30
0.0
 40
0.1279999999999437
 50
329.5344550805
 51
0.0
  0
ARC
  5
DC
  8
DV1_0
  6
HIDDEN2
 62
     1
 10
51.989986744
 20
35.3632386272
 30
0.0
 40
0.1279999999999456
 50
180.0
 51
210.4655449195
  0
LINE
  5
DD
  8
DV1_0
  6
HIDDEN2
 62
     1
 10
49.301986744
 20
44.3565431658
 30
0.0
 11
49.301986744
 21
35.3632386272
 31
0.0
  0
LINE
  5
DE
  8
DV1_0
  6
HIDDEN2
 62
     1
 10
51.861986744
 20
35.3632386272
 30
0.0
 11
51.861986744
 21
44.3565431658
 31
0.0
  0
LINE
  5
DF
  8
DV1_0
  6
HIDDEN2
 62
     1
 10
51.861986744
 20
44.3565431658
 30
0.0
 11
51.616546744
 21
44.6019831658
 31
0.0
  0
LINE
  5
E0
  8
DV1_0
  6
HIDDEN2
 62
     1
 10
49.547426744
 20
44.6019831658
 30
0.0
 11
49.301986744
 21
44.3565431658
 31
0.0
  0
LINE
  5
E1
  8
DV1_0
  6
HIDDEN2
 62
     1
 10
35.957986744
 20
32.4419831658
 30
0.0
 11
39.605986744
 21
32.4419831658
 31
0.0
  0
LINE
  5
E2
  8
DV1_0
  6
HIDDEN2
 62
     1
 10
36.747426744
 20
44.6019831658
 30
0.0
 11
38.816546744
 21
44.6019831658
 31
0.0
  0
LINE
  5
E3
  8
DV1_0
  6
HIDDEN2
 62
     1
 10
35.701986744
 20
32.6979831658
 30
0.0
 11
35.957986744
 21
32.4419831658
 31
0.0
  0
LINE
  5
E4
  8
DV1_0
  6
HIDDEN2
 62
     1
 10
39.605986744
 20
32.4419831658
 30
0.0
 11
39.861986744
 21
32.6979831658
 31
0.0
  0
LINE
  5
E5
  8
DV1_0
  6
HIDDEN2
 62
     1
 10
35.701986744
 20
34.8947831658
 30
0.0
 11
35.701986744
 21
32.6979831658
 31
0.0
  0
LINE
  5
E6
  8
DV1_0
  6
HIDDEN2
 62
     1
 10
39.861986744
 20
32.6979831658
 30
0.0
 11
39.861986744
 21
34.8947831658
 31
0.0
  0
LINE
  5
E7
  8
DV1_0
  6
HIDDEN2
 62
     1
 10
39.861986744
 20
34.8947831658
 30
0.0
 11
39.754786744
 21
35.0019831658
 31
0.0
  0
LINE
  5
E8
  8
DV1_0
  6
HIDDEN2
 62
     1
 10
35.809186744
 20
35.0019831658
 30
0.0
 11
35.701986744
 21
34.8947831658
 31
0.0
  0
ARC
  5
E9
  8
DV1_0
  6
HIDDEN2
 62
     1
 10
36.2367776491
 20
35.1299831658
 30
0.0
 40
0.1279999999999971
 50
270.0
 51
329.5344550805
  0
ARC
  5
EA
  8
DV1_0
  6
HIDDEN2
 62
     1
 10
39.327195839
 20
35.1299831658
 30
0.0
 40
0.1279999999999992
 50
210.4655449195
 51
270.0
  0
LINE
  5
EB
  8
DV1_0
  6
HIDDEN2
 62
     1
 10
39.2168682595
 20
35.0650845896
 30
0.0
 11
39.0796591645
 21
35.298340051
 31
0.0
  0
LINE
  5
EC
  8
DV1_0
  6
HIDDEN2
 62
     1
 10
36.4843143236
 20
35.298340051
 30
0.0
 11
36.3471052286
 21
35.0650845896
 31
0.0
  0
ARC
  5
ED
  8
DV1_0
  6
HIDDEN2
 62
     1
 10
36.373986744
 20
35.3632386272
 30
0.0
 40
0.1279999999999415
 50
329.5344550805
 51
360.0
  0
ARC
  5
EE
  8
DV1_0
  6
HIDDEN2
 62
     1
 10
39.189986744
 20
35.3632386272
 30
0.0
 40
0.1279999999999451
 50
180.0
 51
210.4655449195
  0
LINE
  5
EF
  8
DV1_0
  6
HIDDEN2
 62
     1
 10
36.501986744
 20
44.3565431658
 30
0.0
 11
36.501986744
 21
35.3632386272
 31
0.0
  0
LINE
  5
F0
  8
DV1_0
  6
HIDDEN2
 62
     1
 10
39.061986744
 20
35.3632386272
 30
0.0
 11
39.061986744
 21
44.3565431658
 31
0.0
  0
LINE
  5
F1
  8
DV1_0
  6
HIDDEN2
 62
     1
 10
39.061986744
 20
44.3565431658
 30
0.0
 11
38.816546744
 21
44.6019831658
 31
0.0
  0
LINE
  5
F2
  8
DV1_0
  6
HIDDEN2
 62
     1
 10
36.747426744
 20
44.6019831658
 30
0.0
 11
36.501986744
 21
44.3565431658
 31
0.0
  0
LINE
  5
F3
  8
DV1_0
  6
HIDDEN2
 62
     1
 10
42.261986744
 20
32.4419831658
 30
0.0
 11
46.101986744
 21
32.4419831658
 31
0.0
  0
LINE
  5
F4
  8
DV1_0
  6
HIDDEN2
 62
     1
 10
42.165986744
 20
35.0019831658
 30
0.0
 11
46.197986744
 21
35.0019831658
 31
0.0
  0
LINE
  5
F5
  8
DV1_0
  6
HIDDEN2
 62
     1
 10
43.146786744
 20
40.1219831658
 30
0.0
 11
45.217186744
 21
40.1219831658
 31
0.0
  0
LINE
  5
F6
  8
DV1_0
  6
HIDDEN2
 62
     1
 10
42.101986744
 20
32.6019831658
 30
0.0
 11
42.261986744
 21
32.4419831658
 31
0.0
  0
LINE
  5
F7
  8
DV1_0
  6
HIDDEN2
 62
     1
 10
46.101986744
 20
32.4419831658
 30
0.0
 11
46.261986744
 21
32.6019831658
 31
0.0
  0
LINE
  5
F8
  8
DV1_0
  6
HIDDEN2
 62
     1
 10
42.101986744
 20
34.9379831658
 30
0.0
 11
42.101986744
 21
32.6019831658
 31
0.0
  0
LINE
  5
F9
  8
DV1_0
  6
HIDDEN2
 62
     1
 10
46.261986744
 20
32.6019831658
 30
0.0
 11
46.261986744
 21
34.9379831658
 31
0.0
  0
LINE
  5
FA
  8
DV1_0
  6
HIDDEN2
 62
     1
 10
46.261986744
 20
34.9379831658
 30
0.0
 11
46.197986744
 21
35.0019831658
 31
0.0
  0
LINE
  5
FB
  8
DV1_0
  6
HIDDEN2
 62
     1
 10
42.165986744
 20
35.0019831658
 30
0.0
 11
42.101986744
 21
34.9379831658
 31
0.0
  0
LINE
  5
FC
  8
DV1_0
  6
HIDDEN2
 62
     1
 10
45.6502220382
 20
35.0019831658
 30
0.0
 11
45.461986744
 21
35.3219831658
 31
0.0
  0
LINE
  5
FD
  8
DV1_0
  6
HIDDEN2
 62
     1
 10
42.901986744
 20
35.3219831658
 30
0.0
 11
42.7137514499
 21
35.0019831658
 31
0.0
  0
LINE
  5
FE
  8
DV1_0
  6
HIDDEN2
 62
     1
 10
42.901986744
 20
39.8771831658
 30
0.0
 11
42.901986744
 21
35.3219831658
 31
0.0
  0
LINE
  5
FF
  8
DV1_0
  6
HIDDEN2
 62
     1
 10
45.461986744
 20
35.3219831658
 30
0.0
 11
45.461986744
 21
39.8771831658
 31
0.0
  0
LINE
  5
100
  8
DV1_0
  6
HIDDEN2
 62
     1
 10
45.461986744
 20
39.8771831658
 30
0.0
 11
45.217186744
 21
40.1219831658
 31
0.0
  0
LINE
  5
101
  8
DV1_0
  6
HIDDEN2
 62
     1
 10
43.146786744
 20
40.1219831658
 30
0.0
 11
42.901986744
 21
39.8771831658
 31
0.0
  0
LINE
  5
102
  8
DV1_0
  6
CONTINUOUS
 62
     7
 10
78.693986744
 20
59.9291748223
 30
0.0
 11
78.693986744
 21
55.6731748223
 31
0.0
  0
LINE
  5
103
  8
DV1_0
  6
CONTINUOUS
 62
     7
 10
78.421986744
 20
55.6731748223
 30
0.0
 11
78.693986744
 21
55.6731748223
 31
0.0
  0
LINE
  5
104
  8
DV1_0
  6
CONTINUOUS
 62
     7
 10
78.693986744
 20
59.9291748223
 30
0.0
 11
78.421986744
 21
59.9291748223
 31
0.0
  0
LINE
  5
105
  8
DV1_0
  6
CONTINUOUS
 62
     7
 10
79.653986744
 20
60.0411748223
 30
0.0
 11
79.653986744
 21
55.5611748223
 31
0.0
  0
LINE
  5
106
  8
DV1_0
  6
CONTINUOUS
 62
     7
 10
78.693986744
 20
60.0411748223
 30
0.0
 11
78.693986744
 21
55.5611748223
 31
0.0
  0
LINE
  5
107
  8
DV1_0
  6
CONTINUOUS
 62
     7
 10
78.693986744
 20
55.5611748223
 30
0.0
 11
79.653986744
 21
55.5611748223
 31
0.0
  0
LINE
  5
108
  8
DV1_0
  6
CONTINUOUS
 62
     7
 10
79.653986744
 20
60.0411748223
 30
0.0
 11
78.693986744
 21
60.0411748223
 31
0.0
  0
LINE
  5
10A
  8
1A_AUSSEN_DUENN
  6
CONTINUOUS
 62
     1
 10
32.9904791946
 20
44.9443872012
 30
0.0
 11
28.2294631385
 21
43.8151545793
 31
0.0
  0
LINE
  5
10B
  8
1A_AUSSEN_DUENN
  6
CONTINUOUS
 62
     1
 10
33.0025084119
 20
44.734105694
 30
0.0
 11
28.4386091618
 21
42.9531228496
 31
0.0
  0
LINE
  5
10C
  8
1A_AUSSEN_DUENN
  6
CONTINUOUS
 62
     1
 10
32.9067892968
 20
45.1376720051
 30
0.0
 11
28.020015661
 21
44.6784288045
 31
0.0
  0
LINE
  5
10F
  8
DV1_STANDARD
  6
CENTER2
 62
     1
 10
53.781986744
 20
71.8011748224
 30
0.0
 11
53.781986744
 21
59.4586658768
 31
0.0
  0
LINE
  5
110
  8
DV1_STANDARD
  6
CENTER2
 62
     1
 10
39.381986744
 20
67.9611748223
 30
0.0
 11
39.381986744
 21
32.2811748223
 31
0.0
  0
LINE
  5
111
  8
DV1_STANDARD
  6
CENTER2
 62
     1
 10
50.581986744
 20
45.1619831658
 30
0.0
 11
50.581986744
 21
31.8819831658
 31
0.0
  0
LINE
  5
112
  8
DV1_STANDARD
  6
CENTER2
 62
     1
 10
44.181986744
 20
40.6819831658
 30
0.0
 11
44.181986744
 21
31.8819831658
 31
0.0
  0
LINE
  5
113
  8
DV1_STANDARD
  6
CENTER2
 62
     1
 10
37.781986744
 20
31.8819831658
 30
0.0
 11
37.781986744
 21
35.5619831658
 31
0.0
  0
LINE
  5
115
  8
DV2_0
  6
CONTINUOUS
 62
     7
 10
58.901986744
 20
133.0265156475
 30
0.0
 11
58.901986744
 21
116.3865156475
 31
0.0
  0
CIRCLE
  5
116
  8
DV2_0
  6
CONTINUOUS
 62
     7
 10
39.381986744
 20
113.8265156475
 30
0.0
 40
2.4
  0
CIRCLE
  5
117
  8
DV2_0
  6
CONTINUOUS
 62
     7
 10
39.381986744
 20
135.5865156475
 30
0.0
 40
2.4
  0
CIRCLE
  5
118
  8
DV2_0
  6
CONTINUOUS
 62
     7
 10
74.581986744
 20
113.8265156475
 30
0.0
 40
2.4
  0
CIRCLE
  5
119
  8
DV2_0
  6
CONTINUOUS
 62
     7
 10
74.581986744
 20
135.5865156475
 30
0.0
 40
2.4
  0
CIRCLE
  5
11A
  8
DV2_0
  6
CONTINUOUS
 62
     7
 10
37.781986744
 20
127.9065156475
 30
0.0
 40
1.06352
  0
CIRCLE
  5
11B
  8
DV2_0
  6
CONTINUOUS
 62
     7
 10
50.581986744
 20
127.9065156475
 30
0.0
 40
1.06352
  0
CIRCLE
  5
11C
  8
DV2_0
  6
CONTINUOUS
 62
     7
 10
44.181986744
 20
127.9065156475
 30
0.0
 40
1.648
  0
LINE
  5
11D
  8
DV2_0
  6
CONTINUOUS
 62
     7
 10
78.421986744
 20
138.6265156475
 30
0.0
 11
78.421986744
 21
110.7865156475
 31
0.0
  0
LINE
  5
11E
  8
DV2_0
  6
CONTINUOUS
 62
     7
 10
57.8094384041
 20
139.5865156475
 30
0.0
 11
58.581986744
 21
139.5865156475
 31
0.0
  0
LINE
  5
11F
  8
DV2_0
  6
CONTINUOUS
 62
     7
 10
34.261986744
 20
139.5865156475
 30
0.0
 11
57.8094384041
 21
139.5865156475
 31
0.0
  0
LINE
  5
120
  8
DV2_0
  6
CONTINUOUS
 62
     7
 10
58.581986744
 20
139.5865156475
 30
0.0
 11
77.461986744
 21
139.5865156475
 31
0.0
  0
LINE
  5
121
  8
DV2_0
  6
CONTINUOUS
 62
     7
 10
57.941986744
 20
110.1465156475
 30
0.0
 11
57.941986744
 21
116.3865156475
 31
0.0
  0
LINE
  5
122
  8
DV2_0
  6
CONTINUOUS
 62
     7
 10
57.8094384041
 20
116.7065156475
 30
0.0
 11
58.581986744
 21
116.7065156475
 31
0.0
  0
LINE
  5
123
  8
DV2_0
  6
CONTINUOUS
 62
     7
 10
33.621986744
 20
116.7065156475
 30
0.0
 11
34.101986744
 21
116.7065156475
 31
0.0
  0
LINE
  5
124
  8
DV2_0
  6
CONTINUOUS
 62
     7
 10
54.261986744
 20
116.7065156475
 30
0.0
 11
57.8094384041
 21
116.7065156475
 31
0.0
  0
LINE
  5
125
  8
DV2_0
  6
CONTINUOUS
 62
     7
 10
57.941986744
 20
133.0265156475
 30
0.0
 11
57.941986744
 21
139.2665156475
 31
0.0
  0
LINE
  5
126
  8
DV2_0
  6
CONTINUOUS
 62
     7
 10
33.301986744
 20
138.6265156475
 30
0.0
 11
34.261986744
 21
139.5865156475
 31
0.0
  0
LINE
  5
127
  8
DV2_0
  6
CONTINUOUS
 62
     7
 10
57.8094384041
 20
132.7065156475
 30
0.0
 11
33.621986744
 21
132.7065156475
 31
0.0
  0
LINE
  5
128
  8
DV2_0
  6
CONTINUOUS
 62
     7
 10
58.581986744
 20
132.7065156475
 30
0.0
 11
57.8094384041
 21
132.7065156475
 31
0.0
  0
LINE
  5
129
  8
DV2_0
  6
CONTINUOUS
 62
     7
 10
34.261986744
 20
109.8265156475
 30
0.0
 11
33.301986744
 21
110.7865156475
 31
0.0
  0
LINE
  5
12A
  8
DV2_0
  6
CONTINUOUS
 62
     7
 10
33.301986744
 20
133.0265156475
 30
0.0
 11
33.301986744
 21
138.6265156475
 31
0.0
  0
LINE
  5
12B
  8
DV2_0
  6
CONTINUOUS
 62
     7
 10
33.301986744
 20
116.3865156475
 30
0.0
 11
33.301986744
 21
133.0265156475
 31
0.0
  0
LINE
  5
12C
  8
DV2_0
  6
CONTINUOUS
 62
     7
 10
33.301986744
 20
110.7865156475
 30
0.0
 11
33.301986744
 21
116.3865156475
 31
0.0
  0
LINE
  5
12D
  8
DV2_0
  6
HIDDEN2
 62
     1
 10
78.101986744
 20
138.1465156475
 30
0.0
 11
33.621986744
 21
138.1465156475
 31
0.0
  0
LINE
  5
12E
  8
DV2_0
  6
CONTINUOUS
 62
     7
 10
58.901986744
 20
116.3865156475
 30
0.0
 11
58.901986744
 21
110.1465156475
 31
0.0
  0
LINE
  5
12F
  8
DV2_0
  6
CONTINUOUS
 62
     7
 10
58.901986744
 20
139.2665156475
 30
0.0
 11
58.901986744
 21
133.0265156475
 31
0.0
  0
LINE
  5
130
  8
DV2_0
  6
CONTINUOUS
 62
     7
 10
58.581986744
 20
109.8265156475
 30
0.0
 11
57.8094384041
 21
109.8265156475
 31
0.0
  0
LINE
  5
131
  8
DV2_0
  6
CONTINUOUS
 62
     7
 10
77.461986744
 20
109.8265156475
 30
0.0
 11
58.581986744
 21
109.8265156475
 31
0.0
  0
LINE
  5
132
  8
DV2_0
  6
CONTINUOUS
 62
     7
 10
57.8094384041
 20
109.8265156475
 30
0.0
 11
34.261986744
 21
109.8265156475
 31
0.0
  0
LINE
  5
133
  8
DV2_0
  6
HIDDEN2
 62
     1
 10
78.101986744
 20
111.2665156475
 30
0.0
 11
33.621986744
 21
111.2665156475
 31
0.0
  0
LINE
  5
134
  8
DV2_0
  6
CONTINUOUS
 62
     7
 10
77.461986744
 20
139.5865156475
 30
0.0
 11
78.421986744
 21
138.6265156475
 31
0.0
  0
LINE
  5
135
  8
DV2_0
  6
CONTINUOUS
 62
     7
 10
78.421986744
 20
110.7865156475
 30
0.0
 11
77.461986744
 21
109.8265156475
 31
0.0
  0
LINE
  5
136
  8
DV2_0
  6
CONTINUOUS
 62
     7
 10
58.901986744
 20
116.3865156475
 30
0.0
 11
58.581986744
 21
116.7065156475
 31
0.0
  0
LINE
  5
137
  8
DV2_0
  6
CONTINUOUS
 62
     7
 10
58.581986744
 20
132.7065156475
 30
0.0
 11
58.901986744
 21
133.0265156475
 31
0.0
  0
LINE
  5
138
  8
DV2_0
  6
CONTINUOUS
 62
     7
 10
57.941986744
 20
116.3865156475
 30
0.0
 11
57.8094384041
 21
116.7065156475
 31
0.0
  0
LINE
  5
139
  8
DV2_0
  6
CONTINUOUS
 62
     7
 10
57.8094384041
 20
132.7065156475
 30
0.0
 11
57.941986744
 21
133.0265156475
 31
0.0
  0
LINE
  5
13A
  8
DV2_0
  6
CONTINUOUS
 62
     7
 10
33.621986744
 20
116.7065156475
 30
0.0
 11
33.301986744
 21
116.3865156475
 31
0.0
  0
LINE
  5
13B
  8
DV2_0
  6
CONTINUOUS
 62
     7
 10
33.301986744
 20
133.0265156475
 30
0.0
 11
33.621986744
 21
132.7065156475
 31
0.0
  0
LINE
  5
13C
  8
DV2_0
  6
CONTINUOUS
 62
     7
 10
57.941986744
 20
110.1465156475
 30
0.0
 11
57.8094384041
 21
109.8265156475
 31
0.0
  0
LINE
  5
13D
  8
DV2_0
  6
CONTINUOUS
 62
     7
 10
57.8094384041
 20
139.5865156475
 30
0.0
 11
57.941986744
 21
139.2665156475
 31
0.0
  0
LINE
  5
13E
  8
DV2_0
  6
CONTINUOUS
 62
     7
 10
58.901986744
 20
110.1465156475
 30
0.0
 11
58.581986744
 21
109.8265156475
 31
0.0
  0
LINE
  5
13F
  8
DV2_0
  6
CONTINUOUS
 62
     7
 10
58.581986744
 20
139.5865156475
 30
0.0
 11
58.901986744
 21
139.2665156475
 31
0.0
  0
LINE
  5
140
  8
DV2_0
  6
HIDDEN2
 62
     1
 10
33.621986744
 20
111.2665156475
 30
0.0
 11
33.301986744
 21
111.5350275295
 31
0.0
  0
LINE
  5
141
  8
DV2_0
  6
HIDDEN2
 62
     1
 10
33.621986744
 20
138.1465156475
 30
0.0
 11
33.301986744
 21
137.8780037655
 31
0.0
  0
LINE
  5
142
  8
DV2_0
  6
HIDDEN2
 62
     1
 10
78.421986744
 20
111.5350275295
 30
0.0
 11
78.101986744
 21
111.2665156475
 31
0.0
  0
LINE
  5
143
  8
DV2_0
  6
HIDDEN2
 62
     1
 10
78.101986744
 20
138.1465156475
 30
0.0
 11
78.421986744
 21
137.8780037655
 31
0.0
  0
CIRCLE
  5
144
  8
DV2_0
  6
HIDDEN2
 62
     1
 10
68.181986744
 20
134.3065156475
 30
0.0
 40
1.36
  0
CIRCLE
  5
145
  8
DV2_0
  6
HIDDEN2
 62
     1
 10
53.781986744
 20
124.7065156475
 30
0.0
 40
10.784
  0
ARC
  5
146
  8
DV2_0
  6
HIDDEN2
 62
     1
 10
74.261986744
 20
124.7065156475
 30
0.0
 40
2.56
 50
47.3082269779
 51
132.6917730221
  0
LINE
  5
147
  8
DV2_0
  6
HIDDEN2
 62
     1
 10
76.501986744
 20
124.7065156475
 30
0.0
 11
75.9978053375
 21
126.5881462729
 31
0.0
  0
LINE
  5
148
  8
DV2_0
  6
HIDDEN2
 62
     1
 10
75.9978053375
 20
122.8248850221
 30
0.0
 11
76.501986744
 21
124.7065156475
 31
0.0
  0
LINE
  5
149
  8
DV2_0
  6
HIDDEN2
 62
     1
 10
72.5261681506
 20
126.5881462729
 30
0.0
 11
72.021986744
 21
124.7065156475
 31
0.0
  0
ARC
  5
14A
  8
DV2_0
  6
HIDDEN2
 62
     1
 10
74.261986744
 20
124.7065156475
 30
0.0
 40
2.559999999999998
 50
227.3082269779
 51
312.6917730221
  0
LINE
  5
14B
  8
DV2_0
  6
HIDDEN2
 62
     1
 10
72.021986744
 20
124.7065156475
 30
0.0
 11
72.5261681506
 21
122.8248850221
 31
0.0
  0
LINE
  5
14C
  8
DV2_0
  6
CONTINUOUS
 62
     7
 10
34.101986744
 20
118.3065156475
 30
0.0
 11
34.101986744
 21
124.7065156475
 31
0.0
  0
LINE
  5
14D
  8
DV2_0
  6
CONTINUOUS
 62
     7
 10
54.261986744
 20
118.3065156475
 30
0.0
 11
54.261986744
 21
124.7065156475
 31
0.0
  0
LINE
  5
14E
  8
DV2_0
  6
CONTINUOUS
 62
     7
 10
34.101986744
 20
118.3065156475
 30
0.0
 11
54.261986744
 21
118.3065156475
 31
0.0
  0
LINE
  5
14F
  8
DV2_0
  6
CONTINUOUS
 62
     7
 10
34.101986744
 20
124.7065156475
 30
0.0
 11
39.381986744
 21
124.7065156475
 31
0.0
  0
LINE
  5
150
  8
DV2_0
  6
CONTINUOUS
 62
     7
 10
48.981986744
 20
124.7065156475
 30
0.0
 11
54.261986744
 21
124.7065156475
 31
0.0
  0
LINE
  5
151
  8
DV2_0
  6
CONTINUOUS
 62
     7
 10
48.981986744
 20
124.6105156475
 30
0.0
 11
39.381986744
 21
124.6105156475
 31
0.0
  0
LINE
  5
152
  8
DV2_0
  6
CONTINUOUS
 62
     7
 10
48.981986744
 20
124.7065156475
 30
0.0
 11
48.981986744
 21
124.6105156475
 31
0.0
  0
LINE
  5
153
  8
DV2_0
  6
CONTINUOUS
 62
     7
 10
39.381986744
 20
124.6105156475
 30
0.0
 11
39.381986744
 21
124.7065156475
 31
0.0
  0
LINE
  5
154
  8
DV2_0
  6
CONTINUOUS
 62
     7
 10
34.101986744
 20
116.7065156475
 30
0.0
 11
34.101986744
 21
118.3162391603
 31
0.0
  0
LINE
  5
155
  8
DV2_0
  6
CONTINUOUS
 62
     7
 10
54.261986744
 20
116.7065156475
 30
0.0
 11
54.261986744
 21
118.3162391603
 31
0.0
  0
LINE
  5
156
  8
DV2_0
  6
CONTINUOUS
 62
     7
 10
34.101986744
 20
116.7065156475
 30
0.0
 11
54.261986744
 21
116.7065156475
 31
0.0
  0
CIRCLE
  5
157
  8
DV2_0
  6
CONTINUOUS
 62
     7
 10
50.581986744
 20
121.5065156475
 30
0.0
 40
2.08
  0
CIRCLE
  5
158
  8
DV2_0
  6
CONTINUOUS
 62
     7
 10
37.781986744
 20
121.5065156475
 30
0.0
 40
2.08
  0
CIRCLE
  5
159
  8
DV2_0
  6
CONTINUOUS
 62
     7
 10
44.181986744
 20
121.5065156475
 30
0.0
 40
2.080000000000001
  0
LINE
  5
15A
  8
DV2_0
  6
CONTINUOUS
 62
     7
 10
78.693986744
 20
129.9385156475
 30
0.0
 11
78.693986744
 21
134.1945156475
 31
0.0
  0
LINE
  5
15B
  8
DV2_0
  6
CONTINUOUS
 62
     7
 10
78.421986744
 20
129.9385156475
 30
0.0
 11
78.693986744
 21
129.9385156475
 31
0.0
  0
LINE
  5
15C
  8
DV2_0
  6
CONTINUOUS
 62
     7
 10
78.693986744
 20
134.1945156475
 30
0.0
 11
78.421986744
 21
134.1945156475
 31
0.0
  0
LINE
  5
15D
  8
DV2_0
  6
CONTINUOUS
 62
     7
 10
79.653986744
 20
129.8265156475
 30
0.0
 11
79.653986744
 21
134.3065156475
 31
0.0
  0
LINE
  5
15E
  8
DV2_0
  6
CONTINUOUS
 62
     7
 10
78.693986744
 20
129.8265156475
 30
0.0
 11
78.693986744
 21
134.3065156475
 31
0.0
  0
LINE
  5
15F
  8
DV2_0
  6
CONTINUOUS
 62
     7
 10
78.693986744
 20
129.8265156475
 30
0.0
 11
79.653986744
 21
129.8265156475
 31
0.0
  0
LINE
  5
160
  8
DV2_0
  6
CONTINUOUS
 62
     7
 10
79.653986744
 20
134.3065156475
 30
0.0
 11
78.693986744
 21
134.3065156475
 31
0.0
  0
LINE
  5
161
  8
1A_AUSSEN_DUENN
  6
CONTINUOUS
 62
     1
 10
32.395444226
 20
117.0232816181
 30
0.0
 11
28.0917093449
 21
119.3514367408
 31
0.0
  0
LINE
  5
162
  8
1A_AUSSEN_DUENN
  6
CONTINUOUS
 62
     1
 10
32.2643825439
 20
116.8584002975
 30
0.0
 11
27.6736687754
 21
118.5690795051
 31
0.0
  0
LINE
  5
163
  8
1A_AUSSEN_DUENN
  6
CONTINUOUS
 62
     1
 10
32.4617280188
 20
117.2232052865
 30
0.0
 11
28.5103524602
 21
120.1349216326
 31
0.0
  0
LINE
  5
165
  8
DV2_STANDARD
  6
CENTER2
 62
     1
 10
78.981986744
 20
124.7065156475
 30
0.0
 11
32.741986744
 21
124.7065156475
 31
0.0
  0
LINE
  5
166
  8
DV2_STANDARD
  6
CENTER2
 62
     1
 10
53.781986744
 20
136.0505156475
 30
0.0
 11
53.781986744
 21
113.3625156475
 31
0.0
  0
LINE
  5
167
  8
DV2_STANDARD
  6
CENTER2
 62
     1
 10
40.1819867262
 20
135.5865156475
 30
0.0
 11
38.5819867619
 21
135.5865156475
 31
0.0
  0
LINE
  5
168
  8
DV2_STANDARD
  6
CENTER2
 62
     1
 10
39.381986744
 20
136.3865156296
 30
0.0
 11
39.381986744
 21
134.7865156654
 31
0.0
  0
LINE
  5
169
  8
DV2_STANDARD
  6
CENTER2
 62
     1
 10
40.5819867172
 20
135.5865156475
 30
0.0
 11
42.341986744
 21
135.5865156475
 31
0.0
  0
LINE
  5
16A
  8
DV2_STANDARD
  6
CENTER2
 62
     1
 10
39.381986744
 20
136.7865156207
 30
0.0
 11
39.381986744
 21
138.5465156475
 31
0.0
  0
LINE
  5
16B
  8
DV2_STANDARD
  6
CENTER2
 62
     1
 10
38.1819867709
 20
135.5865156475
 30
0.0
 11
36.421986744
 21
135.5865156475
 31
0.0
  0
LINE
  5
16C
  8
DV2_STANDARD
  6
CENTER2
 62
     1
 10
39.381986744
 20
134.3865156743
 30
0.0
 11
39.381986744
 21
132.6265156475
 31
0.0
  0
LINE
  5
16D
  8
DV2_STANDARD
  6
CENTER2
 62
     1
 10
38.5819867262
 20
127.9065156475
 30
0.0
 11
36.9819867619
 21
127.9065156475
 31
0.0
  0
LINE
  5
16E
  8
DV2_STANDARD
  6
CENTER2
 62
     1
 10
37.781986744
 20
128.7065156296
 30
0.0
 11
37.781986744
 21
127.1065156654
 31
0.0
  0
LINE
  5
16F
  8
DV2_STANDARD
  6
CENTER2
 62
     1
 10
38.9819867172
 20
127.9065156475
 30
0.0
 11
39.405506744
 21
127.9065156475
 31
0.0
  0
LINE
  5
170
  8
DV2_STANDARD
  6
CENTER2
 62
     1
 10
37.781986744
 20
129.1065156207
 30
0.0
 11
37.781986744
 21
129.5300356475
 31
0.0
  0
LINE
  5
171
  8
DV2_STANDARD
  6
CENTER2
 62
     1
 10
36.5819867709
 20
127.9065156475
 30
0.0
 11
36.158466744
 21
127.9065156475
 31
0.0
  0
LINE
  5
172
  8
DV2_STANDARD
  6
CENTER2
 62
     1
 10
37.781986744
 20
126.7065156743
 30
0.0
 11
37.781986744
 21
126.2829956475
 31
0.0
  0
LINE
  5
173
  8
DV2_STANDARD
  6
CENTER2
 62
     1
 10
44.9819867262
 20
127.9065156475
 30
0.0
 11
43.3819867619
 21
127.9065156475
 31
0.0
  0
LINE
  5
174
  8
DV2_STANDARD
  6
CENTER2
 62
     1
 10
44.181986744
 20
128.7065156296
 30
0.0
 11
44.181986744
 21
127.1065156654
 31
0.0
  0
LINE
  5
175
  8
DV2_STANDARD
  6
CENTER2
 62
     1
 10
45.3819867172
 20
127.9065156475
 30
0.0
 11
46.389986744
 21
127.9065156475
 31
0.0
  0
LINE
  5
176
  8
DV2_STANDARD
  6
CENTER2
 62
     1
 10
44.181986744
 20
129.1065156207
 30
0.0
 11
44.181986744
 21
130.1145156475
 31
0.0
  0
LINE
  5
177
  8
DV2_STANDARD
  6
CENTER2
 62
     1
 10
42.9819867709
 20
127.9065156475
 30
0.0
 11
41.973986744
 21
127.9065156475
 31
0.0
  0
LINE
  5
178
  8
DV2_STANDARD
  6
CENTER2
 62
     1
 10
44.181986744
 20
126.7065156743
 30
0.0
 11
44.181986744
 21
125.6985156475
 31
0.0
  0
LINE
  5
179
  8
DV2_STANDARD
  6
CENTER2
 62
     1
 10
51.3819867262
 20
127.9065156475
 30
0.0
 11
49.7819867619
 21
127.9065156475
 31
0.0
  0
LINE
  5
17A
  8
DV2_STANDARD
  6
CENTER2
 62
     1
 10
50.581986744
 20
128.7065156296
 30
0.0
 11
50.581986744
 21
127.1065156654
 31
0.0
  0
LINE
  5
17B
  8
DV2_STANDARD
  6
CENTER2
 62
     1
 10
51.7819867172
 20
127.9065156475
 30
0.0
 11
52.205506744
 21
127.9065156475
 31
0.0
  0
LINE
  5
17C
  8
DV2_STANDARD
  6
CENTER2
 62
     1
 10
50.581986744
 20
129.1065156207
 30
0.0
 11
50.581986744
 21
129.5300356475
 31
0.0
  0
LINE
  5
17D
  8
DV2_STANDARD
  6
CENTER2
 62
     1
 10
49.3819867709
 20
127.9065156475
 30
0.0
 11
48.958466744
 21
127.9065156475
 31
0.0
  0
LINE
  5
17E
  8
DV2_STANDARD
  6
CENTER2
 62
     1
 10
50.581986744
 20
126.7065156743
 30
0.0
 11
50.581986744
 21
126.2829956475
 31
0.0
  0
LINE
  5
17F
  8
DV2_STANDARD
  6
CENTER2
 62
     1
 10
51.3819867262
 20
121.5065156475
 30
0.0
 11
49.7819867619
 21
121.5065156475
 31
0.0
  0
LINE
  5
180
  8
DV2_STANDARD
  6
CENTER2
 62
     1
 10
50.581986744
 20
122.3065156296
 30
0.0
 11
50.581986744
 21
120.7065156654
 31
0.0
  0
LINE
  5
181
  8
DV2_STANDARD
  6
CENTER2
 62
     1
 10
51.7819867172
 20
121.5065156475
 30
0.0
 11
53.221986744
 21
121.5065156475
 31
0.0
  0
LINE
  5
182
  8
DV2_STANDARD
  6
CENTER2
 62
     1
 10
50.581986744
 20
122.7065156207
 30
0.0
 11
50.581986744
 21
124.1465156475
 31
0.0
  0
LINE
  5
183
  8
DV2_STANDARD
  6
CENTER2
 62
     1
 10
49.3819867709
 20
121.5065156475
 30
0.0
 11
47.941986744
 21
121.5065156475
 31
0.0
  0
LINE
  5
184
  8
DV2_STANDARD
  6
CENTER2
 62
     1
 10
50.581986744
 20
120.3065156743
 30
0.0
 11
50.581986744
 21
118.8665156475
 31
0.0
  0
LINE
  5
185
  8
DV2_STANDARD
  6
CENTER2
 62
     1
 10
44.9819867262
 20
121.5065156475
 30
0.0
 11
43.3819867619
 21
121.5065156475
 31
0.0
  0
LINE
  5
186
  8
DV2_STANDARD
  6
CENTER2
 62
     1
 10
44.181986744
 20
122.3065156296
 30
0.0
 11
44.181986744
 21
120.7065156654
 31
0.0
  0
LINE
  5
187
  8
DV2_STANDARD
  6
CENTER2
 62
     1
 10
45.3819867172
 20
121.5065156475
 30
0.0
 11
46.821986744
 21
121.5065156475
 31
0.0
  0
LINE
  5
188
  8
DV2_STANDARD
  6
CENTER2
 62
     1
 10
44.181986744
 20
122.7065156207
 30
0.0
 11
44.181986744
 21
124.1465156475
 31
0.0
  0
LINE
  5
189
  8
DV2_STANDARD
  6
CENTER2
 62
     1
 10
42.9819867709
 20
121.5065156475
 30
0.0
 11
41.541986744
 21
121.5065156475
 31
0.0
  0
LINE
  5
18A
  8
DV2_STANDARD
  6
CENTER2
 62
     1
 10
44.181986744
 20
120.3065156743
 30
0.0
 11
44.181986744
 21
118.8665156475
 31
0.0
  0
LINE
  5
18B
  8
DV2_STANDARD
  6
CENTER2
 62
     1
 10
38.5819867262
 20
121.5065156475
 30
0.0
 11
36.9819867619
 21
121.5065156475
 31
0.0
  0
LINE
  5
18C
  8
DV2_STANDARD
  6
CENTER2
 62
     1
 10
37.781986744
 20
122.3065156296
 30
0.0
 11
37.781986744
 21
120.7065156654
 31
0.0
  0
LINE
  5
18D
  8
DV2_STANDARD
  6
CENTER2
 62
     1
 10
38.9819867172
 20
121.5065156475
 30
0.0
 11
40.421986744
 21
121.5065156475
 31
0.0
  0
LINE
  5
18E
  8
DV2_STANDARD
  6
CENTER2
 62
     1
 10
37.781986744
 20
122.7065156207
 30
0.0
 11
37.781986744
 21
124.1465156475
 31
0.0
  0
LINE
  5
18F
  8
DV2_STANDARD
  6
CENTER2
 62
     1
 10
36.5819867709
 20
121.5065156475
 30
0.0
 11
35.141986744
 21
121.5065156475
 31
0.0
  0
LINE
  5
190
  8
DV2_STANDARD
  6
CENTER2
 62
     1
 10
37.781986744
 20
120.3065156743
 30
0.0
 11
37.781986744
 21
118.8665156475
 31
0.0
  0
LINE
  5
191
  8
DV2_STANDARD
  6
CENTER2
 62
     1
 10
40.1819867262
 20
113.8265156475
 30
0.0
 11
38.5819867619
 21
113.8265156475
 31
0.0
  0
LINE
  5
192
  8
DV2_STANDARD
  6
CENTER2
 62
     1
 10
39.381986744
 20
114.6265156296
 30
0.0
 11
39.381986744
 21
113.0265156654
 31
0.0
  0
LINE
  5
193
  8
DV2_STANDARD
  6
CENTER2
 62
     1
 10
40.5819867172
 20
113.8265156475
 30
0.0
 11
42.341986744
 21
113.8265156475
 31
0.0
  0
LINE
  5
194
  8
DV2_STANDARD
  6
CENTER2
 62
     1
 10
39.381986744
 20
115.0265156207
 30
0.0
 11
39.381986744
 21
116.7865156475
 31
0.0
  0
LINE
  5
195
  8
DV2_STANDARD
  6
CENTER2
 62
     1
 10
38.1819867709
 20
113.8265156475
 30
0.0
 11
36.421986744
 21
113.8265156475
 31
0.0
  0
LINE
  5
196
  8
DV2_STANDARD
  6
CENTER2
 62
     1
 10
39.381986744
 20
112.6265156743
 30
0.0
 11
39.381986744
 21
110.8665156475
 31
0.0
  0
LINE
  5
197
  8
DV2_STANDARD
  6
CENTER2
 62
     1
 10
75.3819867262
 20
113.8265156475
 30
0.0
 11
73.7819867619
 21
113.8265156475
 31
0.0
  0
LINE
  5
198
  8
DV2_STANDARD
  6
CENTER2
 62
     1
 10
74.581986744
 20
114.6265156296
 30
0.0
 11
74.581986744
 21
113.0265156654
 31
0.0
  0
LINE
  5
199
  8
DV2_STANDARD
  6
CENTER2
 62
     1
 10
75.7819867172
 20
113.8265156475
 30
0.0
 11
77.541986744
 21
113.8265156475
 31
0.0
  0
LINE
  5
19A
  8
DV2_STANDARD
  6
CENTER2
 62
     1
 10
74.581986744
 20
115.0265156207
 30
0.0
 11
74.581986744
 21
116.7865156475
 31
0.0
  0
LINE
  5
19B
  8
DV2_STANDARD
  6
CENTER2
 62
     1
 10
73.3819867709
 20
113.8265156475
 30
0.0
 11
71.621986744
 21
113.8265156475
 31
0.0
  0
LINE
  5
19C
  8
DV2_STANDARD
  6
CENTER2
 62
     1
 10
74.581986744
 20
112.6265156743
 30
0.0
 11
74.581986744
 21
110.8665156475
 31
0.0
  0
LINE
  5
19D
  8
DV2_STANDARD
  6
CENTER2
 62
     1
 10
68.9819867262
 20
134.3065156475
 30
0.0
 11
67.3819867619
 21
134.3065156475
 31
0.0
  0
LINE
  5
19E
  8
DV2_STANDARD
  6
CENTER2
 62
     1
 10
68.181986744
 20
135.1065156296
 30
0.0
 11
68.181986744
 21
133.5065156654
 31
0.0
  0
LINE
  5
19F
  8
DV2_STANDARD
  6
CENTER2
 62
     1
 10
69.3819867172
 20
134.3065156475
 30
0.0
 11
70.101986744
 21
134.3065156475
 31
0.0
  0
LINE
  5
1A0
  8
DV2_STANDARD
  6
CENTER2
 62
     1
 10
68.181986744
 20
135.5065156207
 30
0.0
 11
68.181986744
 21
136.2265156475
 31
0.0
  0
LINE
  5
1A1
  8
DV2_STANDARD
  6
CENTER2
 62
     1
 10
66.9819867709
 20
134.3065156475
 30
0.0
 11
66.261986744
 21
134.3065156475
 31
0.0
  0
LINE
  5
1A2
  8
DV2_STANDARD
  6
CENTER2
 62
     1
 10
68.181986744
 20
133.1065156743
 30
0.0
 11
68.181986744
 21
132.3865156475
 31
0.0
  0
LINE
  5
1A3
  8
DV2_STANDARD
  6
CENTER2
 62
     1
 10
75.3819867262
 20
135.5865156475
 30
0.0
 11
73.7819867619
 21
135.5865156475
 31
0.0
  0
LINE
  5
1A4
  8
DV2_STANDARD
  6
CENTER2
 62
     1
 10
74.581986744
 20
136.3865156296
 30
0.0
 11
74.581986744
 21
134.7865156654
 31
0.0
  0
LINE
  5
1A5
  8
DV2_STANDARD
  6
CENTER2
 62
     1
 10
75.7819867172
 20
135.5865156475
 30
0.0
 11
77.541986744
 21
135.5865156475
 31
0.0
  0
LINE
  5
1A6
  8
DV2_STANDARD
  6
CENTER2
 62
     1
 10
74.581986744
 20
136.7865156207
 30
0.0
 11
74.581986744
 21
138.5465156475
 31
0.0
  0
LINE
  5
1A7
  8
DV2_STANDARD
  6
CENTER2
 62
     1
 10
73.3819867709
 20
135.5865156475
 30
0.0
 11
71.621986744
 21
135.5865156475
 31
0.0
  0
LINE
  5
1A8
  8
DV2_STANDARD
  6
CENTER2
 62
     1
 10
74.581986744
 20
134.3865156743
 30
0.0
 11
74.581986744
 21
132.6265156475
 31
0.0
  0
LINE
  5
1A9
  8
DV2_STANDARD
  6
CENTER2
 62
     1
 10
74.261986744
 20
127.8265156475
 30
0.0
 11
74.261986744
 21
121.5865156475
 31
0.0
  0
LINE
  5
1AB
  8
DV3_0
  6
HIDDEN2
 62
     1
 10
123.2853867985
 20
35.4011748223
 30
0.0
 11
128.0853867985
 21
35.4011748223
 31
0.0
  0
LINE
  5
1AC
  8
DV3_0
  6
HIDDEN2
 62
     1
 10
145.0453867985
 20
35.4011748223
 30
0.0
 11
149.8453867985
 21
35.4011748223
 31
0.0
  0
LINE
  5
1AD
  8
DV3_0
  6
HIDDEN2
 62
     1
 10
128.0853867985
 20
43.4011748223
 30
0.0
 11
123.2853867985
 21
43.4011748223
 31
0.0
  0
LINE
  5
1AE
  8
DV3_0
  6
HIDDEN2
 62
     1
 10
149.8453867985
 20
43.4011748223
 30
0.0
 11
145.0453867985
 21
43.4011748223
 31
0.0
  0
CIRCLE
  5
1AF
  8
DV3_0
  6
CONTINUOUS
 62
     7
 10
144.5653867985
 20
43.8811748223
 30
0.0
 40
0.78672
  0
CIRCLE
  5
1B0
  8
DV3_0
  6
CONTINUOUS
 62
     7
 10
128.5653867985
 20
43.8811748223
 30
0.0
 40
0.78672
  0
LINE
  5
1B1
  8
DV3_0
  6
CONTINUOUS
 62
     7
 10
121.6853867985
 20
55.3945290021
 30
0.0
 11
122.3253867985
 21
59.0241493666
 31
0.0
  0
LINE
  5
1B2
  8
DV3_0
  6
CONTINUOUS
 62
     7
 10
151.4453867985
 20
55.3945290021
 30
0.0
 11
151.4453867985
 21
32.5211748223
 31
0.0
  0
LINE
  5
1B3
  8
DV3_0
  6
CONTINUOUS
 62
     7
 10
128.2453867985
 20
32.2011748223
 30
0.0
 11
122.7779351384
 21
32.2011748223
 31
0.0
  0
LINE
  5
1B4
  8
DV3_0
  6
CONTINUOUS
 62
     7
 10
122.7779351384
 20
32.2011748223
 30
0.0
 11
122.0053867985
 21
32.2011748223
 31
0.0
  0
LINE
  5
1B5
  8
DV3_0
  6
CONTINUOUS
 62
     7
 10
128.5653867985
 20
39.7211748223
 30
0.0
 11
128.5653867985
 21
32.5211748223
 31
0.0
  0
LINE
  5
1B6
  8
DV3_0
  6
CONTINUOUS
 62
     7
 10
150.3528384585
 20
32.2011748223
 30
0.0
 11
144.8853867985
 21
32.2011748223
 31
0.0
  0
LINE
  5
1B7
  8
DV3_0
  6
CONTINUOUS
 62
     7
 10
151.1253867985
 20
32.2011748223
 30
0.0
 11
150.3528384585
 21
32.2011748223
 31
0.0
  0
LINE
  5
1B8
  8
DV3_0
  6
CONTINUOUS
 62
     7
 10
150.8053867985
 20
59.0241493666
 30
0.0
 11
151.4453867985
 21
55.3945290021
 31
0.0
  0
LINE
  5
1B9
  8
DV3_0
  6
CONTINUOUS
 62
     7
 10
150.4853867985
 20
32.5211748223
 30
0.0
 11
150.4853867985
 21
58.9961529943
 31
0.0
  0
LINE
  5
1BA
  8
DV3_0
  6
CONTINUOUS
 62
     7
 10
150.8053867985
 20
59.0241493666
 30
0.0
 11
150.4853867985
 21
58.9961529943
 31
0.0
  0
LINE
  5
1BB
  8
DV3_0
  6
CONTINUOUS
 62
     7
 10
144.5653867985
 20
32.5211748223
 30
0.0
 11
144.5653867985
 21
39.7211748223
 31
0.0
  0
LINE
  5
1BC
  8
DV3_0
  6
CONTINUOUS
 62
     7
 10
122.6453867985
 20
58.9961529943
 30
0.0
 11
122.6453867985
 21
32.5211748223
 31
0.0
  0
LINE
  5
1BD
  8
DV3_0
  6
CONTINUOUS
 62
     7
 10
121.6853867985
 20
32.5211748223
 30
0.0
 11
121.6853867985
 21
55.3945290021
 31
0.0
  0
LINE
  5
1BE
  8
DV3_0
  6
CONTINUOUS
 62
     7
 10
122.6453867985
 20
58.9961529943
 30
0.0
 11
122.3253867985
 21
59.0241493666
 31
0.0
  0
LINE
  5
1BF
  8
DV3_0
  6
CONTINUOUS
 62
     7
 10
144.5653867985
 20
40.2011748223
 30
0.0
 11
128.5653867985
 21
40.2011748223
 31
0.0
  0
LINE
  5
1C0
  8
DV3_0
  6
CONTINUOUS
 62
     7
 10
150.0053867985
 20
63.5611748223
 30
0.0
 11
150.8053867985
 21
59.0241493666
 31
0.0
  0
LINE
  5
1C1
  8
DV3_0
  6
CONTINUOUS
 62
     7
 10
123.1253867985
 20
63.5611748223
 30
0.0
 11
150.0053867985
 21
63.5611748223
 31
0.0
  0
LINE
  5
1C2
  8
DV3_0
  6
CONTINUOUS
 62
     7
 10
122.3253867985
 20
59.0241493666
 30
0.0
 11
123.1253867985
 21
63.5611748223
 31
0.0
  0
LINE
  5
1C3
  8
DV3_0
  6
CONTINUOUS
 62
     7
 10
128.2453867985
 20
32.2011748223
 30
0.0
 11
128.5653867985
 21
32.5211748223
 31
0.0
  0
LINE
  5
1C4
  8
DV3_0
  6
CONTINUOUS
 62
     7
 10
144.5653867985
 20
32.5211748223
 30
0.0
 11
144.8853867985
 21
32.2011748223
 31
0.0
  0
LINE
  5
1C5
  8
DV3_0
  6
CONTINUOUS
 62
     7
 10
122.7779351384
 20
32.2011748223
 30
0.0
 11
122.6453867985
 21
32.5211748223
 31
0.0
  0
LINE
  5
1C6
  8
DV3_0
  6
CONTINUOUS
 62
     7
 10
150.4853867985
 20
32.5211748223
 30
0.0
 11
150.3528384585
 21
32.2011748223
 31
0.0
  0
LINE
  5
1C7
  8
DV3_0
  6
CONTINUOUS
 62
     7
 10
122.0053867985
 20
32.2011748223
 30
0.0
 11
121.6853867985
 21
32.5211748223
 31
0.0
  0
LINE
  5
1C8
  8
DV3_0
  6
CONTINUOUS
 62
     7
 10
151.4453867985
 20
32.5211748223
 30
0.0
 11
151.1253867985
 21
32.2011748223
 31
0.0
  0
LINE
  5
1C9
  8
DV3_0
  6
HIDDEN2
 62
     1
 10
122.0053867985
 20
40.5211748223
 30
0.0
 11
121.6853867985
 21
40.8411748223
 31
0.0
  0
LINE
  5
1CA
  8
DV3_0
  6
HIDDEN2
 62
     1
 10
151.4453867985
 20
40.8411748223
 30
0.0
 11
151.1253867985
 21
40.5211748223
 31
0.0
  0
LINE
  5
1CB
  8
DV3_0
  6
CONTINUOUS
 62
     7
 10
128.5173867985
 20
40.2011748223
 30
0.0
 11
128.5653867985
 21
40.2011748223
 31
0.0
  0
LINE
  5
1CC
  8
DV3_0
  6
CONTINUOUS
 62
     7
 10
144.6133867985
 20
39.7211748223
 30
0.0
 11
144.6133867985
 21
40.2011748223
 31
0.0
  0
LINE
  5
1CD
  8
DV3_0
  6
CONTINUOUS
 62
     7
 10
144.5653867985
 20
39.7211748223
 30
0.0
 11
144.6133867985
 21
39.7211748223
 31
0.0
  0
LINE
  5
1CE
  8
DV3_0
  6
CONTINUOUS
 62
     7
 10
144.6133867985
 20
40.2011748223
 30
0.0
 11
144.5653867985
 21
40.2011748223
 31
0.0
  0
ARC
  5
1CF
  8
DV3_0
  6
CONTINUOUS
 62
     7
 10
144.5653867985
 20
43.8811748223
 30
0.0
 40
1.920000000000104
 50
77.3290366174
 51
102.6709633826
  0
ARC
  5
1D0
  8
DV3_0
  6
CONTINUOUS
 62
     7
 10
144.5653867985
 20
43.8811748223
 30
0.0
 40
1.92
 50
102.6709633826
 51
77.3290366174
  0
ARC
  5
1D1
  8
DV3_0
  6
CONTINUOUS
 62
     7
 10
128.5653867985
 20
43.8811748223
 30
0.0
 40
1.919999999999965
 50
77.3290366174
 51
102.6709633826
  0
ARC
  5
1D2
  8
DV3_0
  6
CONTINUOUS
 62
     7
 10
128.5653867985
 20
43.8811748223
 30
0.0
 40
1.920000000000001
 50
102.6709633826
 51
77.3290366174
  0
LINE
  5
1D3
  8
DV3_0
  6
HIDDEN2
 62
     1
 10
123.2853867985
 20
35.4011748223
 30
0.0
 11
123.2853867985
 21
32.2011748223
 31
0.0
  0
LINE
  5
1D4
  8
DV3_0
  6
HIDDEN2
 62
     1
 10
128.0853867985
 20
32.2011748223
 30
0.0
 11
128.0853867985
 21
35.4011748223
 31
0.0
  0
LINE
  5
1D5
  8
DV3_0
  6
HIDDEN2
 62
     1
 10
145.0453867985
 20
35.4011748223
 30
0.0
 11
145.0453867985
 21
32.2011748223
 31
0.0
  0
LINE
  5
1D6
  8
DV3_0
  6
HIDDEN2
 62
     1
 10
149.8453867985
 20
32.2011748223
 30
0.0
 11
149.8453867985
 21
35.4011748223
 31
0.0
  0
LINE
  5
1D7
  8
DV3_0
  6
HIDDEN2
 62
     1
 10
123.2853867985
 20
43.4011748223
 30
0.0
 11
123.2853867985
 21
40.5211748223
 31
0.0
  0
LINE
  5
1D8
  8
DV3_0
  6
HIDDEN2
 62
     1
 10
128.0853867985
 20
40.5211748223
 30
0.0
 11
128.0853867985
 21
43.4011748223
 31
0.0
  0
LINE
  5
1D9
  8
DV3_0
  6
HIDDEN2
 62
     1
 10
145.0453867985
 20
43.4011748223
 30
0.0
 11
145.0453867985
 21
40.5211748223
 31
0.0
  0
LINE
  5
1DA
  8
DV3_0
  6
HIDDEN2
 62
     1
 10
149.8453867985
 20
40.5211748223
 30
0.0
 11
149.8453867985
 21
43.4011748223
 31
0.0
  0
LINE
  5
1DB
  8
DV3_0
  6
HIDDEN2
 62
     1
 10
127.5093867985
 20
32.8411748223
 30
0.0
 11
123.8613867985
 21
32.8411748223
 31
0.0
  0
LINE
  5
1DC
  8
DV3_0
  6
CONTINUOUS
 62
     7
 10
126.7199467985
 20
67.4011748223
 30
0.0
 11
124.6508267985
 21
67.4011748223
 31
0.0
  0
LINE
  5
1DD
  8
DV3_0
  6
HIDDEN2
 62
     1
 10
123.6053867985
 20
33.0971748223
 30
0.0
 11
123.8613867985
 21
32.8411748223
 31
0.0
  0
LINE
  5
1DE
  8
DV3_0
  6
HIDDEN2
 62
     1
 10
127.5093867985
 20
32.8411748223
 30
0.0
 11
127.7653867985
 21
33.0971748223
 31
0.0
  0
LINE
  5
1DF
  8
DV3_0
  6
HIDDEN2
 62
     1
 10
123.6053867985
 20
35.2939748223
 30
0.0
 11
123.6053867985
 21
33.0971748223
 31
0.0
  0
LINE
  5
1E0
  8
DV3_0
  6
HIDDEN2
 62
     1
 10
127.7653867985
 20
33.0971748223
 30
0.0
 11
127.7653867985
 21
35.2939748223
 31
0.0
  0
LINE
  5
1E1
  8
DV3_0
  6
HIDDEN2
 62
     1
 10
127.7653867985
 20
35.2939748223
 30
0.0
 11
127.6581867985
 21
35.4011748223
 31
0.0
  0
LINE
  5
1E2
  8
DV3_0
  6
HIDDEN2
 62
     1
 10
123.7125867985
 20
35.4011748223
 30
0.0
 11
123.6053867985
 21
35.2939748223
 31
0.0
  0
ARC
  5
1E3
  8
DV3_0
  6
HIDDEN2
 62
     1
 10
124.1401777035
 20
35.5291748223
 30
0.0
 40
0.1279999999999971
 50
270.0
 51
329.5344550805
  0
ARC
  5
1E4
  8
DV3_0
  6
HIDDEN2
 62
     1
 10
127.2305958934
 20
35.5291748223
 30
0.0
 40
0.1279999999999992
 50
210.4655449195
 51
270.0
  0
LINE
  5
1E5
  8
DV3_0
  6
HIDDEN2
 62
     1
 10
127.1202683139
 20
35.4642762461
 30
0.0
 11
126.9830592189
 21
35.6975317075
 31
0.0
  0
LINE
  5
1E6
  8
DV3_0
  6
HIDDEN2
 62
     1
 10
124.387714378
 20
35.6975317075
 30
0.0
 11
124.250505283
 21
35.4642762461
 31
0.0
  0
ARC
  5
1E7
  8
DV3_0
  6
HIDDEN2
 62
     1
 10
124.2773867985
 20
35.7624302837
 30
0.0
 40
0.1279999999999415
 50
329.5344550805
 51
0.0
  0
ARC
  5
1E8
  8
DV3_0
  6
HIDDEN2
 62
     1
 10
127.0933867985
 20
35.7624302837
 30
0.0
 40
0.127999999999946
 50
180.0
 51
210.4655449195
  0
LINE
  5
1E9
  8
DV3_0
  6
CONTINUOUS
 62
     7
 10
124.4053867985
 20
67.1557348223
 30
0.0
 11
124.4053867985
 21
63.5611748224
 31
0.0
  0
LINE
  5
1EA
  8
DV3_0
  6
HIDDEN2
 62
     1
 10
124.4053867985
 20
63.5611748224
 30
0.0
 11
124.4053867985
 21
35.7624302837
 31
0.0
  0
LINE
  5
1EB
  8
DV3_0
  6
HIDDEN2
 62
     1
 10
126.9653867985
 20
35.7624302837
 30
0.0
 11
126.9653867985
 21
46.9271470696
 31
0.0
  0
LINE
  5
1EC
  8
DV3_0
  6
HIDDEN2
 62
     1
 10
126.9653867985
 20
47.6382625603
 30
0.0
 11
126.9653867985
 21
63.5611748224
 31
0.0
  0
LINE
  5
1ED
  8
DV3_0
  6
CONTINUOUS
 62
     7
 10
126.9653867985
 20
63.5611748224
 30
0.0
 11
126.9653867985
 21
67.1557348223
 31
0.0
  0
LINE
  5
1EE
  8
DV3_0
  6
CONTINUOUS
 62
     7
 10
126.9653867985
 20
67.1557348223
 30
0.0
 11
126.7199467985
 21
67.4011748223
 31
0.0
  0
LINE
  5
1EF
  8
DV3_0
  6
CONTINUOUS
 62
     7
 10
124.6508267985
 20
67.4011748223
 30
0.0
 11
124.4053867985
 21
67.1557348223
 31
0.0
  0
LINE
  5
1F0
  8
DV3_0
  6
HIDDEN2
 62
     1
 10
149.2693867985
 20
32.8411748223
 30
0.0
 11
145.6213867985
 21
32.8411748223
 31
0.0
  0
LINE
  5
1F1
  8
DV3_0
  6
CONTINUOUS
 62
     7
 10
148.4799467985
 20
67.4011748223
 30
0.0
 11
146.4108267985
 21
67.4011748223
 31
0.0
  0
LINE
  5
1F2
  8
DV3_0
  6
HIDDEN2
 62
     1
 10
145.3653867985
 20
33.0971748223
 30
0.0
 11
145.6213867985
 21
32.8411748223
 31
0.0
  0
LINE
  5
1F3
  8
DV3_0
  6
HIDDEN2
 62
     1
 10
149.2693867985
 20
32.8411748223
 30
0.0
 11
149.5253867985
 21
33.0971748223
 31
0.0
  0
LINE
  5
1F4
  8
DV3_0
  6
HIDDEN2
 62
     1
 10
145.3653867985
 20
35.2939748223
 30
0.0
 11
145.3653867985
 21
33.0971748223
 31
0.0
  0
LINE
  5
1F5
  8
DV3_0
  6
HIDDEN2
 62
     1
 10
149.5253867985
 20
33.0971748223
 30
0.0
 11
149.5253867985
 21
35.2939748223
 31
0.0
  0
LINE
  5
1F6
  8
DV3_0
  6
HIDDEN2
 62
     1
 10
149.5253867985
 20
35.2939748223
 30
0.0
 11
149.4181867985
 21
35.4011748223
 31
0.0
  0
LINE
  5
1F7
  8
DV3_0
  6
HIDDEN2
 62
     1
 10
145.4725867985
 20
35.4011748223
 30
0.0
 11
145.3653867985
 21
35.2939748223
 31
0.0
  0
ARC
  5
1F8
  8
DV3_0
  6
HIDDEN2
 62
     1
 10
145.9001777035
 20
35.5291748223
 30
0.0
 40
0.1279999999999993
 50
270.0
 51
329.5344550805
  0
ARC
  5
1F9
  8
DV3_0
  6
HIDDEN2
 62
     1
 10
148.9905958934
 20
35.5291748223
 30
0.0
 40
0.1279999999999992
 50
210.4655449195
 51
270.0
  0
LINE
  5
1FA
  8
DV3_0
  6
HIDDEN2
 62
     1
 10
148.8802683139
 20
35.4642762461
 30
0.0
 11
148.7430592189
 21
35.6975317075
 31
0.0
  0
LINE
  5
1FB
  8
DV3_0
  6
HIDDEN2
 62
     1
 10
146.147714378
 20
35.6975317075
 30
0.0
 11
146.010505283
 21
35.4642762461
 31
0.0
  0
ARC
  5
1FC
  8
DV3_0
  6
HIDDEN2
 62
     1
 10
146.0373867985
 20
35.7624302837
 30
0.0
 40
0.1279999999999437
 50
329.5344550805
 51
0.0
  0
ARC
  5
1FD
  8
DV3_0
  6
HIDDEN2
 62
     1
 10
148.8533867985
 20
35.7624302837
 30
0.0
 40
0.1279999999999451
 50
180.0
 51
210.4655449195
  0
LINE
  5
1FE
  8
DV3_0
  6
CONTINUOUS
 62
     7
 10
146.1653867985
 20
67.1557348223
 30
0.0
 11
146.1653867985
 21
63.5611748224
 31
0.0
  0
LINE
  5
1FF
  8
DV3_0
  6
HIDDEN2
 62
     1
 10
146.1653867985
 20
63.5611748224
 30
0.0
 11
146.1653867985
 21
47.6457167693
 31
0.0
  0
LINE
  5
200
  8
DV3_0
  6
HIDDEN2
 62
     1
 10
146.1653867985
 20
46.9346012786
 30
0.0
 11
146.1653867985
 21
35.7624302837
 31
0.0
  0
LINE
  5
201
  8
DV3_0
  6
HIDDEN2
 62
     1
 10
148.7253867985
 20
35.7624302837
 30
0.0
 11
148.7253867985
 21
63.5611748224
 31
0.0
  0
LINE
  5
202
  8
DV3_0
  6
CONTINUOUS
 62
     7
 10
148.7253867985
 20
63.5611748224
 30
0.0
 11
148.7253867985
 21
67.1557348223
 31
0.0
  0
LINE
  5
203
  8
DV3_0
  6
CONTINUOUS
 62
     7
 10
148.7253867985
 20
67.1557348223
 30
0.0
 11
148.4799467985
 21
67.4011748223
 31
0.0
  0
LINE
  5
204
  8
DV3_0
  6
CONTINUOUS
 62
     7
 10
146.4108267985
 20
67.4011748223
 30
0.0
 11
146.1653867985
 21
67.1557348223
 31
0.0
  0
LINE
  5
205
  8
DV3_0
  6
CONTINUOUS
 62
     7
 10
146.1653867985
 20
65.1611748224
 30
0.0
 11
126.9653867985
 21
65.1611748224
 31
0.0
  0
LINE
  5
206
  8
DV3_0
  6
CONTINUOUS
 62
     7
 10
146.1653867985
 20
66.4731748224
 30
0.0
 11
126.9653867985
 21
66.4731748224
 31
0.0
  0
LINE
  5
207
  8
DV3_0
  6
CONTINUOUS
 62
     7
 10
147.1006347123
 20
71.2411748224
 30
0.0
 11
126.0301388846
 21
71.2411748224
 31
0.0
  0
LINE
  5
208
  8
DV3_0
  6
CONTINUOUS
 62
     7
 10
125.6853867985
 20
70.7611748224
 30
0.0
 11
125.6853867985
 21
67.4011748223
 31
0.0
  0
LINE
  5
209
  8
DV3_0
  6
CONTINUOUS
 62
     7
 10
147.4453867985
 20
67.4011748223
 30
0.0
 11
147.4453867985
 21
70.7611748224
 31
0.0
  0
ARC
  5
20A
  8
DV3_0
  6
CONTINUOUS
 62
     7
 10
125.8453867985
 20
70.7611748224
 30
0.0
 40
0.1599999999999995
 50
150.0
 51
180.0
  0
ARC
  5
20B
  8
DV3_0
  6
CONTINUOUS
 62
     7
 10
147.2853867985
 20
70.7611748224
 30
0.0
 40
0.1600000000000001
 50
0.0
 51
30.0
  0
LINE
  5
20C
  8
DV3_0
  6
CONTINUOUS
 62
     7
 10
147.4239508631
 20
70.8411748224
 30
0.0
 11
147.2391987769
 21
71.1611748224
 31
0.0
  0
LINE
  5
20D
  8
DV3_0
  6
CONTINUOUS
 62
     7
 10
125.89157482
 20
71.1611748224
 30
0.0
 11
125.7068227338
 21
70.8411748224
 31
0.0
  0
ARC
  5
20E
  8
DV3_0
  6
CONTINUOUS
 62
     7
 10
126.0301388846
 20
71.0811748224
 30
0.0
 40
0.1599999999999979
 50
90.0
 51
150.0
  0
ARC
  5
20F
  8
DV3_0
  6
CONTINUOUS
 62
     7
 10
147.1006347123
 20
71.0811748224
 30
0.0
 40
0.1599999999999995
 50
30.0
 51
90.0
  0
LINE
  5
210
  8
DV3_0
  6
HIDDEN2
 62
     1
 10
145.6213867985
 20
40.8411748223
 30
0.0
 11
149.2693867985
 21
40.8411748223
 31
0.0
  0
LINE
  5
211
  8
DV3_0
  6
HIDDEN2
 62
     1
 10
145.3653867985
 20
41.0971748223
 30
0.0
 11
145.6213867985
 21
40.8411748223
 31
0.0
  0
LINE
  5
212
  8
DV3_0
  6
HIDDEN2
 62
     1
 10
149.2693867985
 20
40.8411748223
 30
0.0
 11
149.5253867985
 21
41.0971748223
 31
0.0
  0
LINE
  5
213
  8
DV3_0
  6
HIDDEN2
 62
     1
 10
145.3653867985
 20
43.2939748223
 30
0.0
 11
145.3653867985
 21
41.0971748223
 31
0.0
  0
LINE
  5
214
  8
DV3_0
  6
HIDDEN2
 62
     1
 10
149.5253867985
 20
41.0971748223
 30
0.0
 11
149.5253867985
 21
43.2939748223
 31
0.0
  0
LINE
  5
215
  8
DV3_0
  6
HIDDEN2
 62
     1
 10
149.5253867985
 20
43.2939748223
 30
0.0
 11
149.4181867985
 21
43.4011748223
 31
0.0
  0
LINE
  5
216
  8
DV3_0
  6
HIDDEN2
 62
     1
 10
145.4725867985
 20
43.4011748223
 30
0.0
 11
145.3653867985
 21
43.2939748223
 31
0.0
  0
LINE
  5
217
  8
DV3_0
  6
HIDDEN2
 62
     1
 10
123.8613867985
 20
40.8411748223
 30
0.0
 11
127.5093867985
 21
40.8411748223
 31
0.0
  0
LINE
  5
218
  8
DV3_0
  6
HIDDEN2
 62
     1
 10
123.6053867985
 20
41.0971748223
 30
0.0
 11
123.8613867985
 21
40.8411748223
 31
0.0
  0
LINE
  5
219
  8
DV3_0
  6
HIDDEN2
 62
     1
 10
127.5093867985
 20
40.8411748223
 30
0.0
 11
127.7653867985
 21
41.0971748223
 31
0.0
  0
LINE
  5
21A
  8
DV3_0
  6
HIDDEN2
 62
     1
 10
123.6053867985
 20
43.2939748223
 30
0.0
 11
123.6053867985
 21
41.0971748223
 31
0.0
  0
LINE
  5
21B
  8
DV3_0
  6
HIDDEN2
 62
     1
 10
127.7653867985
 20
41.0971748223
 30
0.0
 11
127.7653867985
 21
42.8176548223
 31
0.0
  0
LINE
  5
21C
  8
DV3_0
  6
HIDDEN2
 62
     1
 10
127.7653867985
 20
43.2939748223
 30
0.0
 11
127.6581867985
 21
43.4011748223
 31
0.0
  0
LINE
  5
21D
  8
DV3_0
  6
HIDDEN2
 62
     1
 10
123.7125867985
 20
43.4011748223
 30
0.0
 11
123.6053867985
 21
43.2939748223
 31
0.0
  0
LINE
  5
21E
  8
DV3_0
  6
CONTINUOUS
 62
     7
 10
136.5653867985
 20
32.1219831658
 30
0.0
 11
136.5653867985
 21
38.5219831658
 31
0.0
  0
LINE
  5
21F
  8
DV3_0
  6
CONTINUOUS
 62
     7
 10
136.5653867985
 20
38.5219831658
 30
0.0
 11
130.9512079882
 21
38.5219831658
 31
0.0
  0
LINE
  5
220
  8
DV3_0
  6
CONTINUOUS
 62
     7
 10
130.9512079882
 20
38.5219831658
 30
0.0
 11
130.1653867985
 21
32.1219831658
 31
0.0
  0
LINE
  5
221
  8
DV3_0
  6
CONTINUOUS
 62
     7
 10
130.1653867985
 20
32.1219831658
 30
0.0
 11
136.5653867985
 21
32.1219831658
 31
0.0
  0
LINE
  5
222
  8
DV3_0
  6
HIDDEN2
 62
     1
 10
131.1253867985
 20
35.0019831658
 30
0.0
 11
131.3925867985
 21
35.0019831658
 31
0.0
  0
LINE
  5
223
  8
DV3_0
  6
HIDDEN2
 62
     1
 10
133.3653867985
 20
35.0019831658
 30
0.0
 11
135.6053867985
 21
35.0019831658
 31
0.0
  0
LINE
  5
224
  8
DV3_0
  6
HIDDEN2
 62
     1
 10
131.1253867985
 20
35.0019831658
 30
0.0
 11
131.1253867985
 21
32.1219831658
 31
0.0
  0
LINE
  5
225
  8
DV3_0
  6
HIDDEN2
 62
     1
 10
135.6053867985
 20
32.1219831658
 30
0.0
 11
135.6053867985
 21
35.0019831658
 31
0.0
  0
LINE
  5
226
  8
DV3_0
  6
CONTINUOUS
 62
     7
 10
128.5653867985
 20
40.2011748223
 30
0.0
 11
128.5653867985
 21
39.7211748223
 31
0.0
  0
LINE
  5
227
  8
DV3_0
  6
CONTINUOUS
 62
     7
 10
128.5653867985
 20
32.5211748223
 30
0.0
 11
128.5653867985
 21
32.2011748223
 31
0.0
  0
LINE
  5
228
  8
DV3_0
  6
CONTINUOUS
 62
     7
 10
128.5653867985
 20
32.2011748223
 30
0.0
 11
130.1751103112
 21
32.2011748223
 31
0.0
  0
LINE
  5
229
  8
DV3_0
  6
CONTINUOUS
 62
     7
 10
130.1751103112
 20
32.2011748223
 30
0.0
 11
131.1573867985
 21
40.2011748223
 31
0.0
  0
LINE
  5
22A
  8
DV3_0
  6
HIDDEN2
 62
     1
 10
135.1893867985
 20
32.4419831658
 30
0.0
 11
131.5413867985
 21
32.4419831658
 31
0.0
  0
LINE
  5
22B
  8
DV3_0
  6
HIDDEN2
 62
     1
 10
134.3999467985
 20
44.6019831658
 30
0.0
 11
132.3308267985
 21
44.6019831658
 31
0.0
  0
LINE
  5
22C
  8
DV3_0
  6
HIDDEN2
 62
     1
 10
131.2853867985
 20
32.6979831658
 30
0.0
 11
131.5413867985
 21
32.4419831658
 31
0.0
  0
LINE
  5
22D
  8
DV3_0
  6
HIDDEN2
 62
     1
 10
135.1893867985
 20
32.4419831658
 30
0.0
 11
135.4453867985
 21
32.6979831658
 31
0.0
  0
LINE
  5
22E
  8
DV3_0
  6
HIDDEN2
 62
     1
 10
131.2853867985
 20
34.8947831658
 30
0.0
 11
131.2853867985
 21
32.6979831658
 31
0.0
  0
LINE
  5
22F
  8
DV3_0
  6
HIDDEN2
 62
     1
 10
135.4453867985
 20
32.6979831658
 30
0.0
 11
135.4453867985
 21
34.8947831658
 31
0.0
  0
LINE
  5
230
  8
DV3_0
  6
HIDDEN2
 62
     1
 10
135.4453867985
 20
34.8947831658
 30
0.0
 11
135.3381867985
 21
35.0019831658
 31
0.0
  0
LINE
  5
231
  8
DV3_0
  6
HIDDEN2
 62
     1
 10
131.3925867985
 20
35.0019831658
 30
0.0
 11
131.2853867985
 21
34.8947831658
 31
0.0
  0
ARC
  5
232
  8
DV3_0
  6
HIDDEN2
 62
     1
 10
131.8201777035
 20
35.1299831658
 30
0.0
 40
0.1279999999999993
 50
270.0
 51
329.5344550805
  0
ARC
  5
233
  8
DV3_0
  6
HIDDEN2
 62
     1
 10
134.9105958934
 20
35.1299831658
 30
0.0
 40
0.1279999999999992
 50
210.4655449195
 51
270.0
  0
LINE
  5
234
  8
DV3_0
  6
HIDDEN2
 62
     1
 10
134.8002683139
 20
35.0650845896
 30
0.0
 11
134.6630592189
 21
35.298340051
 31
0.0
  0
LINE
  5
235
  8
DV3_0
  6
HIDDEN2
 62
     1
 10
132.067714378
 20
35.298340051
 30
0.0
 11
131.930505283
 21
35.0650845896
 31
0.0
  0
ARC
  5
236
  8
DV3_0
  6
HIDDEN2
 62
     1
 10
131.9573867985
 20
35.3632386272
 30
0.0
 40
0.1279999999999437
 50
329.5344550805
 51
360.0
  0
ARC
  5
237
  8
DV3_0
  6
HIDDEN2
 62
     1
 10
134.7733867985
 20
35.3632386272
 30
0.0
 40
0.1279999999999433
 50
180.0
 51
210.4655449195
  0
LINE
  5
238
  8
DV3_0
  6
HIDDEN2
 62
     1
 10
132.0853867985
 20
44.3565431658
 30
0.0
 11
132.0853867985
 21
40.2011748223
 31
0.0
  0
LINE
  5
239
  8
DV3_0
  6
CONTINUOUS
 62
     7
 10
132.0853867985
 20
40.2011748223
 30
0.0
 11
132.0853867985
 21
38.5219831658
 31
0.0
  0
LINE
  5
23A
  8
DV3_0
  6
HIDDEN2
 62
     1
 10
132.0853867985
 20
38.5219831658
 30
0.0
 11
132.0853867985
 21
35.3632386272
 31
0.0
  0
LINE
  5
23B
  8
DV3_0
  6
HIDDEN2
 62
     1
 10
134.6453867985
 20
35.3632386272
 30
0.0
 11
134.6453867985
 21
38.5219831658
 31
0.0
  0
LINE
  5
23C
  8
DV3_0
  6
CONTINUOUS
 62
     7
 10
134.6453867985
 20
38.5219831658
 30
0.0
 11
134.6453867985
 21
40.2011748223
 31
0.0
  0
LINE
  5
23D
  8
DV3_0
  6
HIDDEN2
 62
     1
 10
134.6453867985
 20
40.2011748223
 30
0.0
 11
134.6453867985
 21
44.3565431658
 31
0.0
  0
LINE
  5
23E
  8
DV3_0
  6
HIDDEN2
 62
     1
 10
134.6453867985
 20
44.3565431658
 30
0.0
 11
134.3999467985
 21
44.6019831658
 31
0.0
  0
LINE
  5
23F
  8
DV3_0
  6
HIDDEN2
 62
     1
 10
132.3308267985
 20
44.6019831658
 30
0.0
 11
132.0853867985
 21
44.3565431658
 31
0.0
  0
LINE
  5
241
  8
DV3_STANDARD
  6
CENTER2
 62
     1
 10
136.5653867985
 20
71.8011748224
 30
0.0
 11
136.5653867985
 21
28.5502975432
 31
0.0
  0
LINE
  5
242
  8
DV3_STANDARD
  6
CENTER2
 62
     1
 10
133.3653867985
 20
45.1619831658
 30
0.0
 11
133.3653867985
 21
31.8819831658
 31
0.0
  0
LINE
  5
243
  8
DV3_STANDARD
  6
CENTER2
 62
     1
 10
125.6853867985
 20
32.2811748223
 30
0.0
 11
125.6853867985
 21
68.0307119067
 31
0.0
  0
LINE
  5
244
  8
DV3_STANDARD
  6
CENTER2
 62
     1
 10
147.4453867985
 20
32.2811748223
 30
0.0
 11
147.4453867985
 21
68.1979427439
 31
0.0
  0
LINE
  5
245
  8
DV3_STANDARD
  6
HIDDEN2
 62
     1
 10
128.2582107509
 20
40.5211748223
 30
0.0
 11
144.8811186287
 21
40.5211748223
 31
0.0
  0
LINE
  5
246
  8
DV3_STANDARD
  6
CENTER2
 62
     1
 10
129.3653867806
 20
43.8811748223
 30
0.0
 11
127.7653868163
 21
43.8811748223
 31
0.0
  0
LINE
  5
247
  8
DV3_STANDARD
  6
CENTER2
 62
     1
 10
128.5653867985
 20
44.6811748044
 30
0.0
 11
128.5653867985
 21
43.0811748402
 31
0.0
  0
LINE
  5
248
  8
DV3_STANDARD
  6
CENTER2
 62
     1
 10
129.7653867716
 20
43.8811748223
 30
0.0
 11
131.0453867985
 21
43.8811748223
 31
0.0
  0
LINE
  5
249
  8
DV3_STANDARD
  6
CENTER2
 62
     1
 10
128.5653867985
 20
45.0811747955
 30
0.0
 11
128.5653867985
 21
46.3611748223
 31
0.0
  0
LINE
  5
24A
  8
DV3_STANDARD
  6
CENTER2
 62
     1
 10
127.3653868253
 20
43.8811748223
 30
0.0
 11
126.0853867985
 21
43.8811748223
 31
0.0
  0
LINE
  5
24B
  8
DV3_STANDARD
  6
CENTER2
 62
     1
 10
128.5653867985
 20
42.6811748491
 30
0.0
 11
128.5653867985
 21
41.4011748223
 31
0.0
  0
LINE
  5
24C
  8
DV3_STANDARD
  6
CENTER2
 62
     1
 10
145.3653867806
 20
43.8811748223
 30
0.0
 11
143.7653868163
 21
43.8811748223
 31
0.0
  0
LINE
  5
24D
  8
DV3_STANDARD
  6
CENTER2
 62
     1
 10
144.5653867985
 20
44.6811748044
 30
0.0
 11
144.5653867985
 21
43.0811748402
 31
0.0
  0
LINE
  5
24E
  8
DV3_STANDARD
  6
CENTER2
 62
     1
 10
145.7653867716
 20
43.8811748223
 30
0.0
 11
147.0453867985
 21
43.8811748223
 31
0.0
  0
LINE
  5
24F
  8
DV3_STANDARD
  6
CENTER2
 62
     1
 10
144.5653867985
 20
45.0811747955
 30
0.0
 11
144.5653867985
 21
46.3611748223
 31
0.0
  0
LINE
  5
250
  8
DV3_STANDARD
  6
CENTER2
 62
     1
 10
143.3653868253
 20
43.8811748223
 30
0.0
 11
142.0853867985
 21
43.8811748223
 31
0.0
  0
LINE
  5
251
  8
DV3_STANDARD
  6
CENTER2
 62
     1
 10
144.5653867985
 20
42.6811748491
 30
0.0
 11
144.5653867985
 21
41.4011748223
 31
0.0
  0
INSERT
  5
253
  8
DEFAULT
  2
GDIMGGROUP
 10
0.0
 20
0.0
 30
0.0
  0
INSERT
  5
260
  8
DEFAULT
  2
GDIMGGROUP1
 10
0.0
 20
0.0
 30
0.0
  0
INSERT
  5
26A
  8
DEFAULT
  2
GDIMGGROUP2
 10
0.0
 20
0.0
 30
0.0
  0
INSERT
  5
274
  8
DEFAULT
  2
GDIMGGROUP3
 10
0.0
 20
0.0
 30
0.0
  0
INSERT
  5
27E
  8
DEFAULT
  2
GDIMGGROUP4
 10
0.0
 20
0.0
 30
0.0
  0
INSERT
  5
288
  8
DEFAULT
  2
GDIMGGROUP5
 10
0.0
 20
0.0
 30
0.0
  0
INSERT
  5
292
  8
DEFAULT
  2
GDIMGGROUP6
 10
0.0
 20
0.0
 30
0.0
  0
INSERT
  5
29C
  8
DEFAULT
  2
GDIMGGROUP7
 10
0.0
 20
0.0
 30
0.0
  0
INSERT
  5
2A6
  8
DEFAULT
  2
GDIMGGROUP8
 10
0.0
 20
0.0
 30
0.0
  0
INSERT
  5
2B0
  8
DEFAULT
  2
GDIMGGROUP9
 10
0.0
 20
0.0
 30
0.0
  0
ENDSEC
  0
EOF
