  0
SECTION
  2
HEADER
  9
$ACADVER
  1
AC1009
  9
$DWGCODEPAGE
  3
ansi_1252
  9
$INSBASE
 10
0.0
 20
0.0
 30
0.0
  9
$EXTMIN
 10
0.0
 20
0.0
 30
0.0
  9
$EXTMAX
 10
180.0
 20
160.0
 30
0.0
  9
$LIMMIN
 10
0.0
 20
0.0
  9
$LIMMAX
 10
180.0
 20
160.0
  9
$ORTHOMODE
 70
     0
  9
$REGENMODE
 70
     1
  9
$FILLMODE
 70
     1
  9
$QTEXTMODE
 70
     0
  9
$MIRRTEXT
 70
     1
  9
$DRAGMODE
 70
     2
  9
$LTSCALE
 40
1.0
  9
$OSMODE
 70
    37
  9
$ATTMODE
 70
     1
  9
$TEXTSIZE
 40
2.5
  9
$TRACEWID
 40
1.0
  9
$TEXTSTYLE
  7
STANDARD
  9
$CLAYER
  8
0
  9
$CELTYPE
  6
BYLAYER
  9
$CECOLOR
 62
   256
  9
$DIMSCALE
 40
1.0
  9
$DIMASZ
 40
2.5
  9
$DIMEXO
 40
0.625
  9
$DIMDLI
 40
3.75
  9
$DIMRND
 40
0.0
  9
$DIMDLE
 40
0.0
  9
$DIMEXE
 40
1.25
  9
$DIMTP
 40
0.0
  9
$DIMTM
 40
0.0
  9
$DIMTXT
 40
2.5
  9
$DIMCEN
 40
2.5
  9
$DIMTSZ
 40
0.0
  9
$DIMTOL
 70
     0
  9
$DIMLIM
 70
     0
  9
$DIMTIH
 70
     0
  9
$DIMTOH
 70
     0
  9
$DIMSE1
 70
     0
  9
$DIMSE2
 70
     0
  9
$DIMTAD
 70
     1
  9
$DIMZIN
 70
     8
  9
$DIMBLK
  1

  9
$DIMASO
 70
     1
  9
$DIMSHO
 70
     1
  9
$DIMPOST
  1

  9
$DIMAPOST
  1

  9
$DIMALT
 70
     0
  9
$DIMALTD
 70
     3
  9
$DIMALTF
 40
0.0393700787
  9
$DIMLFAC
 40
1.0
  9
$DIMTOFL
 70
     1
  9
$DIMTVP
 40
0.0
  9
$DIMTIX
 70
     0
  9
$DIMSOXD
 70
     0
  9
$DIMSAH
 70
     0
  9
$DIMBLK1
  1

  9
$DIMBLK2
  1

  9
$DIMSTYLE
  2
ISO-25
  9
$DIMCLRD
 70
     0
  9
$DIMCLRE
 70
     0
  9
$DIMCLRT
 70
     0
  9
$DIMTFAC
 40
1.0
  9
$DIMGAP
 40
0.625
  9
$LUNITS
 70
     2
  9
$LUPREC
 70
     4
  9
$SKETCHINC
 40
1.0
  9
$FILLETRAD
 40
10.0
  9
$AUNITS
 70
     0
  9
$AUPREC
 70
     0
  9
$MENU
  1
.
  9
$ELEVATION
 40
0.0
  9
$PELEVATION
 40
0.0
  9
$THICKNESS
 40
0.0
  9
$LIMCHECK
 70
     0
  9
$CHAMFERA
 40
10.0
  9
$CHAMFERB
 40
10.0
  9
$SKPOLY
 70
     0
  9
$TDCREATE
 40
2457738.493420428
  9
$TDUPDATE
 40
2457738.493423495
  9
$TDINDWG
 40
0.0000000116
  9
$TDUSRTIMER
 40
0.0000000116
  9
$USRTIMER
 70
     1
  9
$ANGBASE
 50
0.0
  9
$ANGDIR
 70
     0
  9
$PDMODE
 70
     0
  9
$PDSIZE
 40
0.0
  9
$PLINEWID
 40
0.0
  9
$COORDS
 70
     1
  9
$SPLFRAME
 70
     0
  9
$SPLINETYPE
 70
     6
  9
$SPLINESEGS
 70
     8
  9
$ATTDIA
 70
     0
  9
$ATTREQ
 70
     1
  9
$HANDLING
 70
     1
  9
$HANDSEED
  5
7B7
  9
$SURFTAB1
 70
     6
  9
$SURFTAB2
 70
     6
  9
$SURFTYPE
 70
     6
  9
$SURFU
 70
     6
  9
$SURFV
 70
     6
  9
$UCSNAME
  2

  9
$UCSORG
 10
0.0
 20
0.0
 30
0.0
  9
$UCSXDIR
 10
1.0
 20
0.0
 30
0.0
  9
$UCSYDIR
 10
0.0
 20
1.0
 30
0.0
  9
$PUCSNAME
  2

  9
$PUCSORG
 10
0.0
 20
0.0
 30
0.0
  9
$PUCSXDIR
 10
1.0
 20
0.0
 30
0.0
  9
$PUCSYDIR
 10
0.0
 20
1.0
 30
0.0
  9
$USERI1
 70
     0
  9
$USERI2
 70
     0
  9
$USERI3
 70
     0
  9
$USERI4
 70
     0
  9
$USERI5
 70
     0
  9
$USERR1
 40
0.0
  9
$USERR2
 40
0.0
  9
$USERR3
 40
0.0
  9
$USERR4
 40
0.0
  9
$USERR5
 40
0.0
  9
$WORLDVIEW
 70
     1
  9
$SHADEDGE
 70
     3
  9
$SHADEDIF
 70
    70
  9
$TILEMODE
 70
     1
  9
$MAXACTVP
 70
    64
  9
$PLIMCHECK
 70
     0
  9
$PEXTMIN
 10
0.0
 20
0.0
 30
0.0
  9
$PEXTMAX
 10
180.0
 20
160.0
 30
0.0
  9
$PLIMMIN
 10
0.0
 20
0.0
  9
$PLIMMAX
 10
180.0
 20
160.0
  9
$UNITMODE
 70
     0
  9
$VISRETAIN
 70
     1
  9
$PLINEGEN
 70
     0
  9
$PSLTSCALE
 70
     1
  0
ENDSEC
  0
SECTION
  2
TABLES
  0
TABLE
  2
VPORT
 70
     1
  0
VPORT
  2
*ACTIVE
 70
     0
 10
0.0
 20
0.0
 11
1.0
 21
1.0
 12
344.1869158879
 22
148.5
 13
0.0
 23
0.0
 14
10.0
 24
10.0
 15
10.0
 25
10.0
 16
0.0
 26
0.0
 36
1.0
 17
0.0
 27
0.0
 37
0.0
 40
297.0
 41
1.9729729729
 42
50.0
 43
0.0
 44
0.0
 50
0.0
 51
0.0
 71
     0
 72
   100
 73
     1
 74
     3
 75
     0
 76
     0
 77
     0
 78
     0
  0
ENDTAB
  0
TABLE
  2
LTYPE
 70
     4
  0
LTYPE
  2
CONTINUOUS
 70
     0
  3
Solid line
 72
    65
 73
     0
 40
0.0
  0
LTYPE
  2
HIDDEN2
 70
     0
  3
Hidden (.5x) _ _ _ _ _ _ _ _ _ _ _ _ _ _ _ _ _ 
 72
    65
 73
     2
 40
4.7625
 49
3.175
 49
-1.5875
  0
LTYPE
  2
CENTER2
 70
     0
  3
Center (.5x) ___ _ ___ _ ___ _ ___ _ ___ _ ___
 72
    65
 73
     4
 40
28.575
 49
19.05
 49
-3.175
 49
3.175
 49
-3.175
  0
LTYPE
  2
DASHDOT2
 70
     0
  3
Dash dot (.5x) _._._._._._._._._._._._._._._.
 72
    65
 73
     4
 40
12.7
 49
6.35
 49
-3.175
 49
0.0
 49
-3.175
  0
ENDTAB
  0
TABLE
  2
LAYER
 70
    11
  0
LAYER
  2
0
 70
     0
 62
     7
  6
CONTINUOUS
  0
LAYER
  2
DEFAULT
 70
     0
 62
     7
  6
CONTINUOUS
  0
LAYER
  2
DV1_0
 70
     0
 62
     7
  6
CONTINUOUS
  0
LAYER
  2
2A_GESTRICHELT_1
 70
     0
 62
     7
  6
CONTINUOUS
  0
LAYER
  2
0A_AUSSEN_DICK
 70
     0
 62
     7
  6
CONTINUOUS
  0
LAYER
  2
DV1_DEFAULT
 70
     0
 62
     7
  6
CONTINUOUS
  0
LAYER
  2
1A_AUSSEN_DUENN
 70
     0
 62
     7
  6
CONTINUOUS
  0
LAYER
  2
DV2_0
 70
     0
 62
     7
  6
CONTINUOUS
  0
LAYER
  2
DV2_DEFAULT
 70
     0
 62
     7
  6
CONTINUOUS
  0
LAYER
  2
DV3_0
 70
     0
 62
     7
  6
CONTINUOUS
  0
LAYER
  2
DV3_DEFAULT
 70
     0
 62
     7
  6
CONTINUOUS
  0
ENDTAB
  0
TABLE
  2
STYLE
 70
     3
  0
STYLE
  2
STANDARD
 70
     0
 40
0.0
 41
1.0
 50
0.0
 71
     0
 42
2.5
  3
txt
  4

  0
STYLE
  2
SEACAD_ARIAL
 70
     0
 40
0.0
 41
1.0
 50
0.0
 71
     0
 42
0.2
  3
arial.ttf
  4

  0
STYLE
  2
SEACAD_SOLID_EDGE_ANSI1_SY
 70
     0
 40
0.0
 41
1.0
 50
0.0
 71
     0
 42
0.2
  3
semeca1.ttf
  4

  0
ENDTAB
  0
TABLE
  2
VIEW
 70
     0
  0
ENDTAB
  0
TABLE
  2
UCS
 70
     0
  0
ENDTAB
  0
TABLE
  2
APPID
 70
     1
  0
APPID
  2
ACAD
 70
     0
  0
ENDTAB
  0
TABLE
  2
DIMSTYLE
 70
     1
  0
DIMSTYLE
  2
ISO-25
 70
     0
  3

  4

  5

  6

  7

 40
1.0
 41
2.5
 42
0.625
 43
3.75
 44
1.25
 45
0.0
 46
0.0
 47
0.0
 48
0.0
140
2.5
141
2.5
142
0.0
143
0.0393700787
144
1.0
145
0.0
146
1.0
147
0.625
 71
     0
 72
     0
 73
     0
 74
     0
 75
     0
 76
     0
 77
     1
 78
     8
170
     0
171
     3
172
     1
173
     0
174
     0
175
     0
176
     0
177
     0
178
     0
  0
ENDTAB
  0
ENDSEC
  0
SECTION
  2
BLOCKS
  0
BLOCK
  8
0
  2
$MODEL_SPACE
 70
     0
 10
0.0
 20
0.0
 30
0.0
  3
$MODEL_SPACE
  1

  0
ENDBLK
  5
21
  8
0
  0
BLOCK
 67
     1
  8
0
  2
$PAPER_SPACE
 70
     0
 10
0.0
 20
0.0
 30
0.0
  3
$PAPER_SPACE
  1

  0
ENDBLK
  5
1D
 67
     1
  8
0
  0
BLOCK
  8
0
  2
SE
 70
     0
 10
0.0
 20
0.0
 30
0.0
  3
SE
  1

  0
ENDBLK
  5
32A
  8
0
  0
BLOCK
  8
0
  2
SE1
 70
     0
 10
0.0
 20
0.0
 30
0.0
  3
SE1
  1

  0
ENDBLK
  5
32E
  8
0
  0
BLOCK
  8
0
  2
GDIMGGROUP
 70
     0
 10
0.0
 20
0.0
 30
0.0
  3
GDIMGGROUP
  1

  0
POLYLINE
  5
331
  8
DEFAULT
  6
CONTINUOUS
 62
     7
 66
     1
 10
0.0
 20
0.0
 30
0.0
  0
VERTEX
  5
737
  8
DEFAULT
  6
CONTINUOUS
 62
     7
 10
67.9529011348
 20
92.8296822253
 30
0.0
  0
VERTEX
  5
738
  8
DEFAULT
  6
CONTINUOUS
 62
     7
 10
67.9529011348
 20
91.9963489106
 30
0.0
  0
VERTEX
  5
739
  8
DEFAULT
  6
CONTINUOUS
 62
     7
 10
70.452901079
 20
92.413015568
 30
0.0
  0
VERTEX
  5
73A
  8
DEFAULT
  6
CONTINUOUS
 62
     7
 10
67.9529011348
 20
92.8296822253
 30
0.0
  0
SEQEND
  5
7AA
  8
DEFAULT
  6
CONTINUOUS
 62
     7
  0
POLYLINE
  5
332
  8
DEFAULT
  6
CONTINUOUS
 62
     7
 66
     1
 10
0.0
 20
0.0
 30
0.0
  0
VERTEX
  5
73B
  8
DEFAULT
  6
CONTINUOUS
 62
     7
 10
51.1929011071
 20
92.8296822253
 30
0.0
  0
VERTEX
  5
73C
  8
DEFAULT
  6
CONTINUOUS
 62
     7
 10
51.1929011071
 20
91.9963489106
 30
0.0
  0
VERTEX
  5
73D
  8
DEFAULT
  6
CONTINUOUS
 62
     7
 10
48.692901163
 20
92.413015568
 30
0.0
  0
VERTEX
  5
73E
  8
DEFAULT
  6
CONTINUOUS
 62
     7
 10
51.1929011071
 20
92.8296822253
 30
0.0
  0
SEQEND
  5
7A9
  8
DEFAULT
  6
CONTINUOUS
 62
     7
  0
LINE
  5
333
  8
DEFAULT
  6
CONTINUOUS
 62
     7
 10
70.452901079
 20
64.7500007388
 30
0.0
 11
70.452901079
 21
93.66301554
 31
0.0
  0
LINE
  5
334
  8
DEFAULT
  6
CONTINUOUS
 62
     7
 10
48.692901079
 20
66.6170264477
 30
0.0
 11
48.692901079
 21
93.66301554
 31
0.0
  0
LINE
  5
335
  8
DEFAULT
  6
CONTINUOUS
 62
     7
 10
70.452901079
 20
92.413015568
 30
0.0
 11
48.692901163
 21
92.413015568
 31
0.0
  0
TEXT
  5
337
  8
DEFAULT
  6
CONTINUOUS
 62
     7
 10
59.9168179784
 20
93.038015568
 30
0.0
 40
2.5
  1
68
  7
SEACAD_ARIAL
 11
59.9168179784
 21
95.538015568
 31
0.0
 73
     3
  0
TEXT
  5
339
  8
DEFAULT
  6
CONTINUOUS
 62
     7
 10
55.3159407854
 20
93.038015568
 30
0.0
 40
2.5
  1
O
  7
SEACAD_SOLID_EDGE_ANSI1_SY
 11
55.3159407854
 21
95.538015568
 31
0.0
 73
     3
  0
ENDBLK
  5
33B
  8
0
  0
BLOCK
  8
0
  2
GDIMGGROUP1
 70
     0
 10
0.0
 20
0.0
 30
0.0
  3
GDIMGGROUP1
  1

  0
POLYLINE
  5
33E
  8
DEFAULT
  6
CONTINUOUS
 62
     7
 66
     1
 10
0.0
 20
0.0
 30
0.0
  0
VERTEX
  5
73F
  8
DEFAULT
  6
CONTINUOUS
 62
     7
 10
97.8087982308
 20
57.4069750208
 30
0.0
  0
VERTEX
  5
740
  8
DEFAULT
  6
CONTINUOUS
 62
     7
 10
96.9754649161
 20
57.4069750208
 30
0.0
  0
VERTEX
  5
741
  8
DEFAULT
  6
CONTINUOUS
 62
     7
 10
97.3921315735
 20
59.9069749649
 30
0.0
  0
VERTEX
  5
742
  8
DEFAULT
  6
CONTINUOUS
 62
     7
 10
97.8087982308
 20
57.4069750208
 30
0.0
  0
SEQEND
  5
7A8
  8
DEFAULT
  6
CONTINUOUS
 62
     7
  0
POLYLINE
  5
33F
  8
DEFAULT
  6
CONTINUOUS
 62
     7
 66
     1
 10
0.0
 20
0.0
 30
0.0
  0
VERTEX
  5
743
  8
DEFAULT
  6
CONTINUOUS
 62
     7
 10
97.8087982308
 20
33.2869748298
 30
0.0
  0
VERTEX
  5
744
  8
DEFAULT
  6
CONTINUOUS
 62
     7
 10
96.9754649161
 20
33.2869748298
 30
0.0
  0
VERTEX
  5
745
  8
DEFAULT
  6
CONTINUOUS
 62
     7
 10
97.3921315735
 20
30.7869748856
 30
0.0
  0
VERTEX
  5
746
  8
DEFAULT
  6
CONTINUOUS
 62
     7
 10
97.8087982308
 20
33.2869748298
 30
0.0
  0
SEQEND
  5
7A7
  8
DEFAULT
  6
CONTINUOUS
 62
     7
  0
LINE
  5
340
  8
DEFAULT
  6
CONTINUOUS
 62
     7
 10
48.132901079
 20
59.9069749649
 30
0.0
 11
98.6421315455
 21
59.9069749649
 31
0.0
  0
LINE
  5
341
  8
DEFAULT
  6
CONTINUOUS
 62
     7
 10
51.5474131391
 20
30.7869749649
 30
0.0
 11
98.6421315455
 21
30.7869749649
 31
0.0
  0
LINE
  5
342
  8
DEFAULT
  6
CONTINUOUS
 62
     7
 10
97.3921315735
 20
59.9069749649
 30
0.0
 11
97.3921315735
 21
30.7869748856
 31
0.0
  0
TEXT
  5
343
  8
DEFAULT
  6
CONTINUOUS
 62
     7
 10
96.7671315735
 20
43.3904531861
 30
0.0
 40
2.5
  1
91
 50
90.0
  7
SEACAD_ARIAL
 11
94.2671315735
 21
43.3904531861
 31
0.0
 73
     3
  0
ENDBLK
  5
345
  8
0
  0
BLOCK
  8
0
  2
GDIMGGROUP2
 70
     0
 10
0.0
 20
0.0
 30
0.0
  3
GDIMGGROUP2
  1

  0
POLYLINE
  5
348
  8
DEFAULT
  6
CONTINUOUS
 62
     7
 66
     1
 10
0.0
 20
0.0
 30
0.0
  0
VERTEX
  5
747
  8
DEFAULT
  6
CONTINUOUS
 62
     7
 10
90.4452643519
 20
57.4069750208
 30
0.0
  0
VERTEX
  5
748
  8
DEFAULT
  6
CONTINUOUS
 62
     7
 10
89.6119310372
 20
57.4069750208
 30
0.0
  0
VERTEX
  5
749
  8
DEFAULT
  6
CONTINUOUS
 62
     7
 10
90.0285976945
 20
59.9069749649
 30
0.0
  0
VERTEX
  5
74A
  8
DEFAULT
  6
CONTINUOUS
 62
     7
 10
90.4452643519
 20
57.4069750208
 30
0.0
  0
SEQEND
  5
7A6
  8
DEFAULT
  6
CONTINUOUS
 62
     7
  0
POLYLINE
  5
349
  8
DEFAULT
  6
CONTINUOUS
 62
     7
 66
     1
 10
0.0
 20
0.0
 30
0.0
  0
VERTEX
  5
74B
  8
DEFAULT
  6
CONTINUOUS
 62
     7
 10
90.4452643519
 20
40.0069757077
 30
0.0
  0
VERTEX
  5
74C
  8
DEFAULT
  6
CONTINUOUS
 62
     7
 10
89.6119310372
 20
40.0069757077
 30
0.0
  0
VERTEX
  5
74D
  8
DEFAULT
  6
CONTINUOUS
 62
     7
 10
90.0285976945
 20
37.5069757636
 30
0.0
  0
VERTEX
  5
74E
  8
DEFAULT
  6
CONTINUOUS
 62
     7
 10
90.4452643519
 20
40.0069757077
 30
0.0
  0
SEQEND
  5
7A5
  8
DEFAULT
  6
CONTINUOUS
 62
     7
  0
LINE
  5
34A
  8
DEFAULT
  6
CONTINUOUS
 62
     7
 10
84.372901079
 20
59.9069749649
 30
0.0
 11
91.2785976666
 21
59.9069749649
 31
0.0
  0
LINE
  5
34B
  8
DEFAULT
  6
CONTINUOUS
 62
     7
 10
65.492901079
 20
37.5069749649
 30
0.0
 11
91.2785976666
 21
37.5069749649
 31
0.0
  0
LINE
  5
34C
  8
DEFAULT
  6
CONTINUOUS
 62
     7
 10
90.0285976945
 20
59.9069749649
 30
0.0
 11
90.0285976945
 21
37.5069757636
 31
0.0
  0
TEXT
  5
34D
  8
DEFAULT
  6
CONTINUOUS
 62
     7
 10
89.4035976945
 20
46.7504536251
 30
0.0
 40
2.5
  1
70
 50
90.0
  7
SEACAD_ARIAL
 11
86.9035976945
 21
46.7504536251
 31
0.0
 73
     3
  0
ENDBLK
  5
34F
  8
0
  0
BLOCK
  8
0
  2
GDIMGGROUP3
 70
     0
 10
0.0
 20
0.0
 30
0.0
  3
GDIMGGROUP3
  1

  0
POLYLINE
  5
352
  8
DEFAULT
  6
CONTINUOUS
 62
     7
 66
     1
 10
0.0
 20
0.0
 30
0.0
  0
VERTEX
  5
74F
  8
DEFAULT
  6
CONTINUOUS
 62
     7
 10
97.7287980012
 20
33.286974909
 30
0.0
  0
VERTEX
  5
750
  8
DEFAULT
  6
CONTINUOUS
 62
     7
 10
96.8954646865
 20
33.286974909
 30
0.0
  0
VERTEX
  5
751
  8
DEFAULT
  6
CONTINUOUS
 62
     7
 10
97.3121313439
 20
30.7869749649
 30
0.0
  0
VERTEX
  5
752
  8
DEFAULT
  6
CONTINUOUS
 62
     7
 10
97.7287980012
 20
33.286974909
 30
0.0
  0
SEQEND
  5
7A4
  8
DEFAULT
  6
CONTINUOUS
 62
     7
  0
POLYLINE
  5
353
  8
DEFAULT
  6
CONTINUOUS
 62
     7
 66
     1
 10
0.0
 20
0.0
 30
0.0
  0
VERTEX
  5
753
  8
DEFAULT
  6
CONTINUOUS
 62
     7
 10
97.7287980012
 20
25.7269750208
 30
0.0
  0
VERTEX
  5
754
  8
DEFAULT
  6
CONTINUOUS
 62
     7
 10
96.8954646865
 20
25.7269750208
 30
0.0
  0
VERTEX
  5
755
  8
DEFAULT
  6
CONTINUOUS
 62
     7
 10
97.3121313439
 20
28.2269749649
 30
0.0
  0
VERTEX
  5
756
  8
DEFAULT
  6
CONTINUOUS
 62
     7
 10
97.7287980012
 20
25.7269750208
 30
0.0
  0
SEQEND
  5
7A3
  8
DEFAULT
  6
CONTINUOUS
 62
     7
  0
LINE
  5
354
  8
DEFAULT
  6
CONTINUOUS
 62
     7
 10
51.5474131391
 20
30.7869749649
 30
0.0
 11
98.5621313159
 21
30.7869749649
 31
0.0
  0
LINE
  5
355
  8
DEFAULT
  6
CONTINUOUS
 62
     7
 10
50.0969216981
 20
28.2269749649
 30
0.0
 11
98.5621313159
 21
28.2269749649
 31
0.0
  0
LINE
  5
356
  8
DEFAULT
  6
CONTINUOUS
 62
     7
 10
97.3121313439
 20
35.7869748532
 30
0.0
 11
97.3121313439
 21
20.9110962732
 31
0.0
  0
TEXT
  5
357
  8
DEFAULT
  6
CONTINUOUS
 62
     7
 10
96.6871313439
 20
21.7860963544
 30
0.0
 40
2.5
  1
8
 50
90.0
  7
SEACAD_ARIAL
 11
94.1871313439
 21
21.7860963544
 31
0.0
 73
     3
  0
ENDBLK
  5
359
  8
0
  0
BLOCK
  8
0
  2
GDIMGGROUP4
 70
     0
 10
0.0
 20
0.0
 30
0.0
  3
GDIMGGROUP4
  1

  0
POLYLINE
  5
35C
  8
DEFAULT
  6
CONTINUOUS
 62
     7
 66
     1
 10
0.0
 20
0.0
 30
0.0
  0
VERTEX
  5
757
  8
DEFAULT
  6
CONTINUOUS
 62
     7
 10
25.6934238038
 20
33.286974909
 30
0.0
  0
VERTEX
  5
758
  8
DEFAULT
  6
CONTINUOUS
 62
     7
 10
26.5267571185
 20
33.286974909
 30
0.0
  0
VERTEX
  5
759
  8
DEFAULT
  6
CONTINUOUS
 62
     7
 10
26.1100904611
 20
30.7869749649
 30
0.0
  0
VERTEX
  5
75A
  8
DEFAULT
  6
CONTINUOUS
 62
     7
 10
25.6934238038
 20
33.286974909
 30
0.0
  0
SEQEND
  5
7A2
  8
DEFAULT
  6
CONTINUOUS
 62
     7
  0
POLYLINE
  5
35D
  8
DEFAULT
  6
CONTINUOUS
 62
     7
 66
     1
 10
0.0
 20
0.0
 30
0.0
  0
VERTEX
  5
75B
  8
DEFAULT
  6
CONTINUOUS
 62
     7
 10
25.6934238038
 20
43.6469746328
 30
0.0
  0
VERTEX
  5
75C
  8
DEFAULT
  6
CONTINUOUS
 62
     7
 10
26.5267571185
 20
43.6469746328
 30
0.0
  0
VERTEX
  5
75D
  8
DEFAULT
  6
CONTINUOUS
 62
     7
 10
26.1100904611
 20
46.1469745769
 30
0.0
  0
VERTEX
  5
75E
  8
DEFAULT
  6
CONTINUOUS
 62
     7
 10
25.6934238038
 20
43.6469746328
 30
0.0
  0
SEQEND
  5
7A1
  8
DEFAULT
  6
CONTINUOUS
 62
     7
  0
LINE
  5
35E
  8
DEFAULT
  6
CONTINUOUS
 62
     7
 10
35.5983890188
 20
30.7869749649
 30
0.0
 11
24.8600904891
 21
30.7869749649
 31
0.0
  0
LINE
  5
35F
  8
DEFAULT
  6
CONTINUOUS
 62
     7
 10
39.732901079
 20
46.1469749649
 30
0.0
 11
24.8600904891
 21
46.1469749649
 31
0.0
  0
LINE
  5
360
  8
DEFAULT
  6
CONTINUOUS
 62
     7
 10
26.1100904611
 20
30.7869749649
 30
0.0
 11
26.1100904611
 21
46.1469745769
 31
0.0
  0
TEXT
  5
361
  8
DEFAULT
  6
CONTINUOUS
 62
     7
 10
25.4850904611
 20
36.5104530318
 30
0.0
 40
2.5
  1
48
 50
90.0
  7
SEACAD_ARIAL
 11
22.9850904611
 21
36.5104530318
 31
0.0
 73
     3
  0
ENDBLK
  5
363
  8
0
  0
BLOCK
  8
0
  2
GDIMGGROUP5
 70
     0
 10
0.0
 20
0.0
 30
0.0
  3
GDIMGGROUP5
  1

  0
POLYLINE
  5
366
  8
DEFAULT
  6
CONTINUOUS
 62
     7
 66
     1
 10
0.0
 20
0.0
 30
0.0
  0
VERTEX
  5
75F
  8
DEFAULT
  6
CONTINUOUS
 62
     7
 10
25.6934240998
 20
138.218974935
 30
0.0
  0
VERTEX
  5
760
  8
DEFAULT
  6
CONTINUOUS
 62
     7
 10
26.5267574145
 20
138.218974935
 30
0.0
  0
VERTEX
  5
761
  8
DEFAULT
  6
CONTINUOUS
 62
     7
 10
26.1100907571
 20
140.7189748791
 30
0.0
  0
VERTEX
  5
762
  8
DEFAULT
  6
CONTINUOUS
 62
     7
 10
25.6934240998
 20
138.218974935
 30
0.0
  0
SEQEND
  5
7A0
  8
DEFAULT
  6
CONTINUOUS
 62
     7
  0
POLYLINE
  5
367
  8
DEFAULT
  6
CONTINUOUS
 62
     7
 66
     1
 10
0.0
 20
0.0
 30
0.0
  0
VERTEX
  5
763
  8
DEFAULT
  6
CONTINUOUS
 62
     7
 10
25.6934240998
 20
130.0989745726
 30
0.0
  0
VERTEX
  5
764
  8
DEFAULT
  6
CONTINUOUS
 62
     7
 10
26.5267574145
 20
130.0989745726
 30
0.0
  0
VERTEX
  5
765
  8
DEFAULT
  6
CONTINUOUS
 62
     7
 10
26.1100907571
 20
127.5989746285
 30
0.0
  0
VERTEX
  5
766
  8
DEFAULT
  6
CONTINUOUS
 62
     7
 10
25.6934240998
 20
130.0989745726
 30
0.0
  0
SEQEND
  5
79F
  8
DEFAULT
  6
CONTINUOUS
 62
     7
  0
LINE
  5
368
  8
DEFAULT
  6
CONTINUOUS
 62
     7
 10
40.2358365006
 20
140.7189748791
 30
0.0
 11
24.8600907851
 21
140.7189748791
 31
0.0
  0
LINE
  5
369
  8
DEFAULT
  6
CONTINUOUS
 62
     7
 10
40.2358365006
 20
127.5989748791
 30
0.0
 11
24.8600907851
 21
127.5989748791
 31
0.0
  0
LINE
  5
36A
  8
DEFAULT
  6
CONTINUOUS
 62
     7
 10
26.1100907571
 20
140.7189748791
 30
0.0
 11
26.1100907571
 21
127.5989746285
 31
0.0
  0
TEXT
  5
36B
  8
DEFAULT
  6
CONTINUOUS
 62
     7
 10
25.4850907571
 20
134.2285788033
 30
0.0
 40
2.5
  1
41
 50
90.0
  7
SEACAD_ARIAL
 11
22.9850907571
 21
134.2285788033
 31
0.0
 73
     3
  0
ENDBLK
  5
36D
  8
0
  0
BLOCK
  8
0
  2
SE2
 70
     0
 10
0.0
 20
0.0
 30
0.0
  3
SE2
  1

  0
INSERT
  5
371
  8
DEFAULT
  2
SE3
 10
0.0
 20
0.0
 30
0.0
  0
ENDBLK
  5
37B
  8
0
  0
BLOCK
  8
0
  2
SE3
 70
     0
 10
0.0
 20
0.0
 30
0.0
  3
SE3
  1

  0
LINE
  5
372
  8
DEFAULT
  6
CONTINUOUS
 62
     3
 10
24.0787267996
 20
133.2654439877
 30
0.0
 11
22.8287267996
 21
132.5437561513
 31
0.0
  0
LINE
  5
373
  8
DEFAULT
  6
CONTINUOUS
 62
     3
 10
22.8287267996
 20
132.5437561513
 30
0.0
 11
22.8287267996
 21
131.1003804783
 31
0.0
  0
LINE
  5
374
  8
DEFAULT
  6
CONTINUOUS
 62
     3
 10
22.8287267996
 20
131.1003804783
 30
0.0
 11
24.0787267996
 21
130.3786926418
 31
0.0
  0
LINE
  5
375
  8
DEFAULT
  6
CONTINUOUS
 62
     3
 10
24.0787267996
 20
130.3786926418
 30
0.0
 11
25.3287267996
 21
131.1003804783
 31
0.0
  0
LINE
  5
376
  8
DEFAULT
  6
CONTINUOUS
 62
     3
 10
25.3287267996
 20
131.1003804783
 30
0.0
 11
25.3287267996
 21
132.5437561513
 31
0.0
  0
LINE
  5
377
  8
DEFAULT
  6
CONTINUOUS
 62
     3
 10
25.3287267996
 20
132.5437561513
 30
0.0
 11
24.0787267996
 21
133.2654439877
 31
0.0
  0
ENDBLK
  5
379
  8
0
  0
BLOCK
  8
0
  2
GDIMGGROUP6
 70
     0
 10
0.0
 20
0.0
 30
0.0
  3
GDIMGGROUP6
  1

  0
POLYLINE
  5
37E
  8
DEFAULT
  6
CONTINUOUS
 62
     7
 66
     1
 10
0.0
 20
0.0
 30
0.0
  0
VERTEX
  5
767
  8
DEFAULT
  6
CONTINUOUS
 62
     7
 10
57.0729011348
 20
113.6542130038
 30
0.0
  0
VERTEX
  5
768
  8
DEFAULT
  6
CONTINUOUS
 62
     7
 10
57.0729011348
 20
114.4875463185
 30
0.0
  0
VERTEX
  5
769
  8
DEFAULT
  6
CONTINUOUS
 62
     7
 10
59.572901079
 20
114.0708796612
 30
0.0
  0
VERTEX
  5
76A
  8
DEFAULT
  6
CONTINUOUS
 62
     7
 10
57.0729011348
 20
113.6542130038
 30
0.0
  0
SEQEND
  5
79E
  8
DEFAULT
  6
CONTINUOUS
 62
     7
  0
POLYLINE
  5
37F
  8
DEFAULT
  6
CONTINUOUS
 62
     7
 66
     1
 10
0.0
 20
0.0
 30
0.0
  0
VERTEX
  5
76B
  8
DEFAULT
  6
CONTINUOUS
 62
     7
 10
46.0729002631
 20
113.6542130038
 30
0.0
  0
VERTEX
  5
76C
  8
DEFAULT
  6
CONTINUOUS
 62
     7
 10
46.0729002631
 20
114.4875463185
 30
0.0
  0
VERTEX
  5
76D
  8
DEFAULT
  6
CONTINUOUS
 62
     7
 10
43.572900319
 20
114.0708796612
 30
0.0
  0
VERTEX
  5
76E
  8
DEFAULT
  6
CONTINUOUS
 62
     7
 10
46.0729002631
 20
113.6542130038
 30
0.0
  0
SEQEND
  5
79D
  8
DEFAULT
  6
CONTINUOUS
 62
     7
  0
LINE
  5
380
  8
DEFAULT
  6
CONTINUOUS
 62
     7
 10
59.572901079
 20
134.1589748791
 30
0.0
 11
59.572901079
 21
112.8208796891
 31
0.0
  0
LINE
  5
381
  8
DEFAULT
  6
CONTINUOUS
 62
     7
 10
43.572901079
 20
134.1589748791
 30
0.0
 11
43.572901079
 21
112.8208796891
 31
0.0
  0
LINE
  5
382
  8
DEFAULT
  6
CONTINUOUS
 62
     7
 10
59.572901079
 20
114.0708796612
 30
0.0
 11
43.572900319
 21
114.0708796612
 31
0.0
  0
TEXT
  5
383
  8
DEFAULT
  6
CONTINUOUS
 62
     7
 10
49.6163789599
 20
114.6958796612
 30
0.0
 40
2.5
  1
50
  7
SEACAD_ARIAL
 11
49.6163789599
 21
117.1958796612
 31
0.0
 73
     3
  0
ENDBLK
  5
385
  8
0
  0
BLOCK
  8
0
  2
GDIMGGROUP7
 70
     0
 10
0.0
 20
0.0
 30
0.0
  3
GDIMGGROUP7
  1

  0
POLYLINE
  5
388
  8
DEFAULT
  6
CONTINUOUS
 62
     7
 66
     1
 10
0.0
 20
0.0
 30
0.0
  0
VERTEX
  5
76F
  8
DEFAULT
  6
CONTINUOUS
 62
     7
 10
62.0729010231
 20
113.6542130038
 30
0.0
  0
VERTEX
  5
770
  8
DEFAULT
  6
CONTINUOUS
 62
     7
 10
62.0729010231
 20
114.4875463185
 30
0.0
  0
VERTEX
  5
771
  8
DEFAULT
  6
CONTINUOUS
 62
     7
 10
59.572901079
 20
114.0708796612
 30
0.0
  0
VERTEX
  5
772
  8
DEFAULT
  6
CONTINUOUS
 62
     7
 10
62.0729010231
 20
113.6542130038
 30
0.0
  0
SEQEND
  5
79C
  8
DEFAULT
  6
CONTINUOUS
 62
     7
  0
POLYLINE
  5
389
  8
DEFAULT
  6
CONTINUOUS
 62
     7
 66
     1
 10
0.0
 20
0.0
 30
0.0
  0
VERTEX
  5
773
  8
DEFAULT
  6
CONTINUOUS
 62
     7
 10
82.0329012028
 20
113.6542130038
 30
0.0
  0
VERTEX
  5
774
  8
DEFAULT
  6
CONTINUOUS
 62
     7
 10
82.0329012028
 20
114.4875463185
 30
0.0
  0
VERTEX
  5
775
  8
DEFAULT
  6
CONTINUOUS
 62
     7
 10
84.5329011469
 20
114.0708796612
 30
0.0
  0
VERTEX
  5
776
  8
DEFAULT
  6
CONTINUOUS
 62
     7
 10
82.0329012028
 20
113.6542130038
 30
0.0
  0
SEQEND
  5
79B
  8
DEFAULT
  6
CONTINUOUS
 62
     7
  0
LINE
  5
38A
  8
DEFAULT
  6
CONTINUOUS
 62
     7
 10
59.572901079
 20
134.1589748791
 30
0.0
 11
59.572901079
 21
112.8208796891
 31
0.0
  0
LINE
  5
38B
  8
DEFAULT
  6
CONTINUOUS
 62
     7
 10
84.532901079
 20
120.8789748791
 30
0.0
 11
84.532901079
 21
112.8208796891
 31
0.0
  0
LINE
  5
38C
  8
DEFAULT
  6
CONTINUOUS
 62
     7
 10
59.572901079
 20
114.0708796612
 30
0.0
 11
84.5329011469
 21
114.0708796612
 31
0.0
  0
TEXT
  5
38D
  8
DEFAULT
  6
CONTINUOUS
 62
     7
 10
70.0963793738
 20
114.6958796612
 30
0.0
 40
2.5
  1
78
  7
SEACAD_ARIAL
 11
70.0963793738
 21
117.1958796612
 31
0.0
 73
     3
  0
ENDBLK
  5
38F
  8
0
  0
BLOCK
  8
0
  2
GDIMGGROUP8
 70
     0
 10
0.0
 20
0.0
 30
0.0
  3
GDIMGGROUP8
  1

  0
POLYLINE
  5
392
  8
DEFAULT
  6
CONTINUOUS
 62
     7
 66
     1
 10
0.0
 20
0.0
 30
0.0
  0
VERTEX
  5
777
  8
DEFAULT
  6
CONTINUOUS
 62
     7
 10
82.0329011348
 20
107.6516802919
 30
0.0
  0
VERTEX
  5
778
  8
DEFAULT
  6
CONTINUOUS
 62
     7
 10
82.0329011348
 20
108.4850136066
 30
0.0
  0
VERTEX
  5
779
  8
DEFAULT
  6
CONTINUOUS
 62
     7
 10
84.532901079
 20
108.0683469492
 30
0.0
  0
VERTEX
  5
77A
  8
DEFAULT
  6
CONTINUOUS
 62
     7
 10
82.0329011348
 20
107.6516802919
 30
0.0
  0
SEQEND
  5
79A
  8
DEFAULT
  6
CONTINUOUS
 62
     7
  0
POLYLINE
  5
393
  8
DEFAULT
  6
CONTINUOUS
 62
     7
 66
     1
 10
0.0
 20
0.0
 30
0.0
  0
VERTEX
  5
77B
  8
DEFAULT
  6
CONTINUOUS
 62
     7
 10
33.5929001612
 20
107.6516802919
 30
0.0
  0
VERTEX
  5
77C
  8
DEFAULT
  6
CONTINUOUS
 62
     7
 10
33.5929001612
 20
108.4850136066
 30
0.0
  0
VERTEX
  5
77D
  8
DEFAULT
  6
CONTINUOUS
 62
     7
 10
31.0929002171
 20
108.0683469492
 30
0.0
  0
VERTEX
  5
77E
  8
DEFAULT
  6
CONTINUOUS
 62
     7
 10
33.5929001612
 20
107.6516802919
 30
0.0
  0
SEQEND
  5
799
  8
DEFAULT
  6
CONTINUOUS
 62
     7
  0
LINE
  5
394
  8
DEFAULT
  6
CONTINUOUS
 62
     7
 10
84.532901079
 20
120.8789748791
 30
0.0
 11
84.532901079
 21
106.8183469772
 31
0.0
  0
LINE
  5
395
  8
DEFAULT
  6
CONTINUOUS
 62
     7
 10
31.092901079
 20
124.5589748791
 30
0.0
 11
31.092901079
 21
106.8183469772
 31
0.0
  0
LINE
  5
396
  8
DEFAULT
  6
CONTINUOUS
 62
     7
 10
84.532901079
 20
108.0683469492
 30
0.0
 11
31.0929002171
 21
108.0683469492
 31
0.0
  0
TEXT
  5
397
  8
DEFAULT
  6
CONTINUOUS
 62
     7
 10
54.8781180393
 20
108.6933469492
 30
0.0
 40
2.5
  1
167
  7
SEACAD_ARIAL
 11
54.8781180393
 21
111.1933469492
 31
0.0
 73
     3
  0
ENDBLK
  5
399
  8
0
  0
BLOCK
  8
0
  2
GDIMGGROUP9
 70
     0
 10
0.0
 20
0.0
 30
0.0
  3
GDIMGGROUP9
  1

  0
POLYLINE
  5
39C
  8
DEFAULT
  6
CONTINUOUS
 62
     7
 66
     1
 10
0.0
 20
0.0
 30
0.0
  0
VERTEX
  5
77F
  8
DEFAULT
  6
CONTINUOUS
 62
     7
 10
47.6729010231
 20
21.4176929259
 30
0.0
  0
VERTEX
  5
780
  8
DEFAULT
  6
CONTINUOUS
 62
     7
 10
47.6729010231
 20
22.2510262406
 30
0.0
  0
VERTEX
  5
781
  8
DEFAULT
  6
CONTINUOUS
 62
     7
 10
45.172901079
 20
21.8343595833
 30
0.0
  0
VERTEX
  5
782
  8
DEFAULT
  6
CONTINUOUS
 62
     7
 10
47.6729010231
 20
21.4176929259
 30
0.0
  0
SEQEND
  5
798
  8
DEFAULT
  6
CONTINUOUS
 62
     7
  0
POLYLINE
  5
39D
  8
DEFAULT
  6
CONTINUOUS
 62
     7
 66
     1
 10
0.0
 20
0.0
 30
0.0
  0
VERTEX
  5
783
  8
DEFAULT
  6
CONTINUOUS
 62
     7
 10
39.4729011348
 20
21.4176929259
 30
0.0
  0
VERTEX
  5
784
  8
DEFAULT
  6
CONTINUOUS
 62
     7
 10
39.4729011348
 20
22.2510262406
 30
0.0
  0
VERTEX
  5
785
  8
DEFAULT
  6
CONTINUOUS
 62
     7
 10
41.972901079
 20
21.8343595833
 30
0.0
  0
VERTEX
  5
786
  8
DEFAULT
  6
CONTINUOUS
 62
     7
 10
39.4729011348
 20
21.4176929259
 30
0.0
  0
SEQEND
  5
797
  8
DEFAULT
  6
CONTINUOUS
 62
     7
  0
LINE
  5
39E
  8
DEFAULT
  6
CONTINUOUS
 62
     7
 10
45.172901079
 20
28.2269749649
 30
0.0
 11
45.172901079
 21
20.5843596112
 31
0.0
  0
LINE
  5
39F
  8
DEFAULT
  6
CONTINUOUS
 62
     7
 10
41.972901079
 20
28.2269749649
 30
0.0
 11
41.972901079
 21
20.5843596112
 31
0.0
  0
LINE
  5
3A0
  8
DEFAULT
  6
CONTINUOUS
 62
     7
 10
50.1729009672
 20
21.8343595833
 30
0.0
 11
26.4262549578
 21
21.8343595833
 31
0.0
  0
TEXT
  5
3A1
  8
DEFAULT
  6
CONTINUOUS
 62
     7
 10
27.3012537136
 20
22.4593595833
 30
0.0
 40
2.5
  1
O
  7
SEACAD_SOLID_EDGE_ANSI1_SY
 11
27.3012537136
 21
24.9593595833
 31
0.0
 73
     3
  0
TEXT
  5
3A2
  8
DEFAULT
  6
CONTINUOUS
 62
     7
 10
30.1521309066
 20
22.4593595833
 30
0.0
 40
2.5
  1
2-20
  7
SEACAD_ARIAL
 11
30.1521309066
 21
24.9593595833
 31
0.0
 73
     3
  0
ENDBLK
  5
3A4
  8
0
  0
BLOCK
  8
0
  2
GDIMGGROUP10
 70
     0
 10
0.0
 20
0.0
 30
0.0
  3
GDIMGGROUP10
  1

  0
POLYLINE
  5
3A7
  8
DEFAULT
  6
CONTINUOUS
 62
     7
 66
     1
 10
0.0
 20
0.0
 30
0.0
  0
VERTEX
  5
787
  8
DEFAULT
  6
CONTINUOUS
 62
     7
 10
90.4452640932
 20
123.2189748232
 30
0.0
  0
VERTEX
  5
788
  8
DEFAULT
  6
CONTINUOUS
 62
     7
 10
89.6119307785
 20
123.2189748232
 30
0.0
  0
VERTEX
  5
789
  8
DEFAULT
  6
CONTINUOUS
 62
     7
 10
90.0285974359
 20
120.7189748791
 30
0.0
  0
VERTEX
  5
78A
  8
DEFAULT
  6
CONTINUOUS
 62
     7
 10
90.4452640932
 20
123.2189748232
 30
0.0
  0
SEQEND
  5
796
  8
DEFAULT
  6
CONTINUOUS
 62
     7
  0
POLYLINE
  5
3A8
  8
DEFAULT
  6
CONTINUOUS
 62
     7
 66
     1
 10
0.0
 20
0.0
 30
0.0
  0
VERTEX
  5
78B
  8
DEFAULT
  6
CONTINUOUS
 62
     7
 10
90.4452640932
 20
145.0989747216
 30
0.0
  0
VERTEX
  5
78C
  8
DEFAULT
  6
CONTINUOUS
 62
     7
 10
89.6119307785
 20
145.0989747216
 30
0.0
  0
VERTEX
  5
78D
  8
DEFAULT
  6
CONTINUOUS
 62
     7
 10
90.0285974359
 20
147.5989746657
 30
0.0
  0
VERTEX
  5
78E
  8
DEFAULT
  6
CONTINUOUS
 62
     7
 10
90.4452640932
 20
145.0989747216
 30
0.0
  0
SEQEND
  5
795
  8
DEFAULT
  6
CONTINUOUS
 62
     7
  0
LINE
  5
3A9
  8
DEFAULT
  6
CONTINUOUS
 62
     7
 10
74.132901079
 20
120.7189748791
 30
0.0
 11
91.2785974079
 21
120.7189748791
 31
0.0
  0
LINE
  5
3AA
  8
DEFAULT
  6
CONTINUOUS
 62
     7
 10
75.572901079
 20
147.5989748791
 30
0.0
 11
91.2785974079
 21
147.5989748791
 31
0.0
  0
LINE
  5
3AB
  8
DEFAULT
  6
CONTINUOUS
 62
     7
 10
90.0285974359
 20
120.7189748791
 30
0.0
 11
90.0285974359
 21
147.5989746657
 31
0.0
  0
TEXT
  5
3AC
  8
DEFAULT
  6
CONTINUOUS
 62
     7
 10
89.4035974359
 20
132.2024530333
 30
0.0
 40
2.5
  1
84
 50
90.0
  7
SEACAD_ARIAL
 11
86.9035974359
 21
132.2024530333
 31
0.0
 73
     3
  0
ENDBLK
  5
3AE
  8
0
  0
BLOCK
  8
0
  2
SE4
 70
     0
 10
0.0
 20
0.0
 30
0.0
  3
SE4
  1

  0
INSERT
  5
3B1
  8
DEFAULT
  2
*X17
 10
0.0
 20
0.0
 30
0.0
  0
ENDBLK
  5
3B3
  8
0
  0
BLOCK
  8
0
  2
*X17
 70
     1
 10
0.0
 20
0.0
 30
0.0
  3
*X17
  1

  0
TEXT
  5
790
  8
DEFAULT
  6
CONTINUOUS
 62
     7
 10
75.3880232309
 20
81.7548316987
 30
0.0
 40
2.5
  1
Fixierung einstellbar
  0
TEXT
  5
791
  8
DEFAULT
  6
CONTINUOUS
 62
     7
 10
75.5005232309
 20
77.545665032
 30
0.0
 40
2.5
  1
Centerline adjustment
  0
TEXT
  5
792
  8
DEFAULT
  6
CONTINUOUS
 62
     7
 10
75.3505232309
 20
73.3789983653
 30
0.0
 40
2.5
  1
Indexation ajustable
  0
ENDBLK
  5
794
  8
0
  0
ENDSEC
  0
SECTION
  2
ENTITIES
  0
LINE
  5
40
  8
DEFAULT
  6
CONTINUOUS
 62
     1
 10
78.1932893119
 20
63.1069749649
 30
0.0
 11
85.2855173646
 21
72.9116374129
 31
0.0
  0
LINE
  5
42
  8
DV1_0
  6
CONTINUOUS
 62
     7
 10
34.292901079
 20
48.7069749649
 30
0.0
 11
31.092901079
 21
48.7069749649
 31
0.0
  0
LINE
  5
43
  8
DV1_0
  6
CONTINUOUS
 62
     7
 10
65.652901079
 20
48.7069749649
 30
0.0
 11
34.292901079
 21
48.7069749649
 31
0.0
  0
LINE
  5
44
  8
DV1_0
  6
CONTINUOUS
 62
     7
 10
75.572901079
 20
48.7069749649
 30
0.0
 11
65.652901079
 21
48.7069749649
 31
0.0
  0
LINE
  5
45
  8
DV1_0
  6
CONTINUOUS
 62
     7
 10
65.652901079
 20
40.3869749649
 30
0.0
 11
65.652901079
 21
48.7069749649
 31
0.0
  0
LINE
  5
46
  8
DV1_0
  6
CONTINUOUS
 62
     7
 10
34.3591752489
 20
37.5069749649
 30
0.0
 11
31.252901079
 21
37.5069749649
 31
0.0
  0
LINE
  5
47
  8
DV1_0
  6
CONTINUOUS
 62
     7
 10
65.492901079
 20
37.5069749649
 30
0.0
 11
34.3591752489
 21
37.5069749649
 31
0.0
  0
LINE
  5
48
  8
DV1_0
  6
CONTINUOUS
 62
     7
 10
69.652901079
 20
37.5069749649
 30
0.0
 11
65.492901079
 21
37.5069749649
 31
0.0
  0
LINE
  5
49
  8
DV1_0
  6
CONTINUOUS
 62
     7
 10
75.412901079
 20
37.5069749649
 30
0.0
 11
69.652901079
 21
37.5069749649
 31
0.0
  0
LINE
  5
4A
  8
DV1_0
  6
CONTINUOUS
 62
     7
 10
75.572901079
 20
37.6669749649
 30
0.0
 11
75.572901079
 21
48.7069749649
 31
0.0
  0
LINE
  5
4B
  8
DV1_0
  6
CONTINUOUS
 62
     7
 10
65.652901079
 20
37.6669749649
 30
0.0
 11
65.652901079
 21
40.3869749649
 31
0.0
  0
LINE
  5
4C
  8
DV1_0
  6
CONTINUOUS
 62
     7
 10
34.292901079
 20
37.6669749649
 30
0.0
 11
34.292901079
 21
48.7069749649
 31
0.0
  0
LINE
  5
4D
  8
DV1_0
  6
CONTINUOUS
 62
     7
 10
31.092901079
 20
37.6669749649
 30
0.0
 11
31.092901079
 21
48.7069749649
 31
0.0
  0
LINE
  5
4E
  8
DV1_0
  6
CONTINUOUS
 62
     7
 10
65.492901079
 20
37.5069749649
 30
0.0
 11
65.652901079
 21
37.6669749649
 31
0.0
  0
LINE
  5
4F
  8
DV1_0
  6
CONTINUOUS
 62
     7
 10
75.572901079
 20
37.6669749649
 30
0.0
 11
75.412901079
 21
37.5069749649
 31
0.0
  0
LINE
  5
50
  8
DV1_0
  6
CONTINUOUS
 62
     7
 10
31.252901079
 20
37.5069749649
 30
0.0
 11
31.092901079
 21
37.6669749649
 31
0.0
  0
LINE
  5
51
  8
DV1_0
  6
CONTINUOUS
 62
     7
 10
48.756901079
 20
61.5069749649
 30
0.0
 11
70.388901079
 21
61.5069749649
 31
0.0
  0
LINE
  5
52
  8
DV1_0
  6
CONTINUOUS
 62
     7
 10
48.756901079
 20
62.8189749649
 30
0.0
 11
70.388901079
 21
62.8189749649
 31
0.0
  0
LINE
  5
53
  8
DV1_0
  6
CONTINUOUS
 62
     7
 10
48.692901079
 20
66.6170265127
 30
0.0
 11
70.452901079
 21
66.6170265127
 31
0.0
  0
LINE
  5
54
  8
DV1_0
  6
CONTINUOUS
 62
     7
 10
49.252901079
 20
67.5869749649
 30
0.0
 11
69.892901079
 21
67.5869749649
 31
0.0
  0
LINE
  5
55
  8
DV1_0
  6
CONTINUOUS
 62
     7
 10
49.4376531651
 20
69.5069749649
 30
0.0
 11
69.7081489928
 21
69.5069749649
 31
0.0
  0
LINE
  5
56
  8
DV1_0
  6
CONTINUOUS
 62
     7
 10
53.3576531651
 20
85.5069749649
 30
0.0
 11
65.7881489928
 21
85.5069749649
 31
0.0
  0
LINE
  5
57
  8
DV1_0
  6
CONTINUOUS
 62
     7
 10
63.892901079
 20
55.2669749649
 30
0.0
 11
63.892901079
 21
49.3469749649
 31
0.0
  0
LINE
  5
58
  8
DV1_0
  6
CONTINUOUS
 62
     7
 10
75.572901079
 20
55.1069749649
 30
0.0
 11
75.572901079
 21
48.7069749649
 31
0.0
  0
LINE
  5
59
  8
DV1_0
  6
CONTINUOUS
 62
     7
 10
31.092901079
 20
48.7069749649
 30
0.0
 11
34.292901079
 21
48.7069749649
 31
0.0
  0
LINE
  5
5A
  8
DV1_0
  6
CONTINUOUS
 62
     7
 10
65.6512866274
 20
48.7069749649
 30
0.0
 11
75.572901079
 21
48.7069749649
 31
0.0
  0
LINE
  5
5B
  8
DV1_0
  6
CONTINUOUS
 62
     7
 10
65.6512866274
 20
48.7069749649
 30
0.0
 11
34.292901079
 21
48.7069749649
 31
0.0
  0
LINE
  5
5C
  8
DV1_0
  6
CONTINUOUS
 62
     7
 10
34.292901079
 20
48.7069749649
 30
0.0
 11
34.932901079
 21
49.3469749649
 31
0.0
  0
LINE
  5
5D
  8
DV1_0
  6
CONTINUOUS
 62
     7
 10
63.892901079
 20
49.3469749649
 30
0.0
 11
65.6512866274
 21
48.7069749649
 31
0.0
  0
LINE
  5
5E
  8
DV1_0
  6
CONTINUOUS
 62
     7
 10
84.372901079
 20
55.1069749649
 30
0.0
 11
64.3324974661
 21
55.1069749649
 31
0.0
  0
LINE
  5
5F
  8
DV1_0
  6
CONTINUOUS
 62
     7
 10
84.532901079
 20
59.7469749649
 30
0.0
 11
84.532901079
 21
55.2669749649
 31
0.0
  0
LINE
  5
60
  8
DV1_0
  6
CONTINUOUS
 62
     7
 10
34.932901079
 20
54.6109749649
 30
0.0
 11
34.932901079
 21
49.3469749649
 31
0.0
  0
LINE
  5
61
  8
DV1_0
  6
CONTINUOUS
 62
     7
 10
48.532901079
 20
54.7709749649
 30
0.0
 11
48.852901079
 21
54.7709749649
 31
0.0
  0
LINE
  5
62
  8
DV1_0
  6
CONTINUOUS
 62
     7
 10
31.252901079
 20
54.7709749649
 30
0.0
 11
33.012901079
 21
54.7709749649
 31
0.0
  0
LINE
  5
63
  8
DV1_0
  6
CONTINUOUS
 62
     7
 10
31.092901079
 20
54.6109749649
 30
0.0
 11
31.092901079
 21
48.7069749649
 31
0.0
  0
LINE
  5
64
  8
DV1_0
  6
CONTINUOUS
 62
     7
 10
48.852901079
 20
54.7709749649
 30
0.0
 11
48.852901079
 21
59.7469749649
 31
0.0
  0
LINE
  5
65
  8
DV1_0
  6
CONTINUOUS
 62
     7
 10
49.012901079
 20
59.9069749649
 30
0.0
 11
84.372901079
 21
59.9069749649
 31
0.0
  0
LINE
  5
66
  8
DV1_0
  6
CONTINUOUS
 62
     7
 10
47.252901079
 20
59.9069749649
 30
0.0
 11
49.012901079
 21
59.9069749649
 31
0.0
  0
LINE
  5
67
  8
DV1_0
  6
CONTINUOUS
 62
     7
 10
43.572901079
 20
59.9069749649
 30
0.0
 11
43.892901079
 21
59.9069749649
 31
0.0
  0
LINE
  5
68
  8
DV1_0
  6
CONTINUOUS
 62
     7
 10
46.452901079
 20
59.9069749649
 30
0.0
 11
47.252901079
 21
59.9069749649
 31
0.0
  0
LINE
  5
69
  8
DV1_0
  6
CONTINUOUS
 62
     7
 10
42.797275951
 20
59.9069749649
 30
0.0
 11
43.572901079
 21
59.9069749649
 31
0.0
  0
LINE
  5
6A
  8
DV1_0
  6
CONTINUOUS
 62
     7
 10
39.892901079
 20
59.9069749649
 30
0.0
 11
42.797275951
 21
59.9069749649
 31
0.0
  0
LINE
  5
6B
  8
DV1_0
  6
CONTINUOUS
 62
     7
 10
64.3324974661
 20
55.1069749649
 30
0.0
 11
63.892901079
 21
55.2669749649
 31
0.0
  0
LINE
  5
6C
  8
DV1_0
  6
CONTINUOUS
 62
     7
 10
42.7899235919
 20
59.8909749649
 30
0.0
 11
42.797275951
 21
59.9069749649
 31
0.0
  0
LINE
  5
6D
  8
DV1_0
  6
CONTINUOUS
 62
     7
 10
31.252901079
 20
54.7709749649
 30
0.0
 11
31.092901079
 21
54.6109749649
 31
0.0
  0
LINE
  5
6E
  8
DV1_0
  6
CONTINUOUS
 62
     7
 10
39.876901079
 20
59.8909749649
 30
0.0
 11
39.892901079
 21
59.9069749649
 31
0.0
  0
LINE
  5
6F
  8
DV1_0
  6
CONTINUOUS
 62
     7
 10
49.012901079
 20
59.9069749649
 30
0.0
 11
48.852901079
 21
59.7469749649
 31
0.0
  0
LINE
  5
70
  8
DV1_0
  6
CONTINUOUS
 62
     7
 10
84.372901079
 20
59.9069749649
 30
0.0
 11
84.532901079
 21
59.7469749649
 31
0.0
  0
LINE
  5
71
  8
DV1_0
  6
CONTINUOUS
 62
     7
 10
84.532901079
 20
55.2669749649
 30
0.0
 11
84.372901079
 21
55.1069749649
 31
0.0
  0
LINE
  5
72
  8
DV1_0
  6
CONTINUOUS
 62
     7
 10
70.452901079
 20
60.5469749649
 30
0.0
 11
70.452901079
 21
61.4429749649
 31
0.0
  0
LINE
  5
73
  8
DV1_0
  6
CONTINUOUS
 62
     7
 10
48.692901079
 20
61.4429749649
 30
0.0
 11
48.692901079
 21
60.5469749649
 31
0.0
  0
ARC
  5
74
  8
DV1_0
  6
CONTINUOUS
 62
     7
 10
70.388901079
 20
61.4429749649
 30
0.0
 40
0.0639999999999996
 50
0.0
 51
90.0
  0
ARC
  5
75
  8
DV1_0
  6
CONTINUOUS
 62
     7
 10
48.756901079
 20
61.4429749649
 30
0.0
 40
0.0640000000000018
 50
90.0
 51
180.0
  0
ARC
  5
76
  8
DV1_0
  6
CONTINUOUS
 62
     7
 10
70.388901079
 20
62.8829749649
 30
0.0
 40
0.0639999999999996
 50
270.0
 51
360.0
  0
ARC
  5
77
  8
DV1_0
  6
CONTINUOUS
 62
     7
 10
48.756901079
 20
62.8829749649
 30
0.0
 40
0.0639999999999996
 50
180.0
 51
270.0
  0
LINE
  5
78
  8
DV1_0
  6
CONTINUOUS
 62
     7
 10
70.452901079
 20
62.8829749649
 30
0.0
 11
70.452901079
 21
66.6170265127
 31
0.0
  0
LINE
  5
79
  8
DV1_0
  6
CONTINUOUS
 62
     7
 10
48.692901079
 20
66.6170265127
 30
0.0
 11
48.692901079
 21
62.8829749649
 31
0.0
  0
LINE
  5
7A
  8
DV1_0
  6
CONTINUOUS
 62
     7
 10
70.452901079
 20
66.6170265127
 30
0.0
 11
69.892901079
 21
67.5869749649
 31
0.0
  0
LINE
  5
7B
  8
DV1_0
  6
CONTINUOUS
 62
     7
 10
49.252901079
 20
67.5869749649
 30
0.0
 11
48.692901079
 21
66.6170265127
 31
0.0
  0
LINE
  5
7C
  8
DV1_0
  6
CONTINUOUS
 62
     7
 10
69.892901079
 20
67.5869749649
 30
0.0
 11
69.892901079
 21
69.1869749649
 31
0.0
  0
LINE
  5
7D
  8
DV1_0
  6
CONTINUOUS
 62
     7
 10
49.252901079
 20
69.1869749649
 30
0.0
 11
49.252901079
 21
67.5869749649
 31
0.0
  0
LINE
  5
7E
  8
DV1_0
  6
CONTINUOUS
 62
     7
 10
69.892901079
 20
69.1869749649
 30
0.0
 11
69.7081489928
 21
69.5069749649
 31
0.0
  0
LINE
  5
7F
  8
DV1_0
  6
CONTINUOUS
 62
     7
 10
49.4376531651
 20
69.5069749649
 30
0.0
 11
49.252901079
 21
69.1869749649
 31
0.0
  0
ARC
  5
80
  8
DV1_0
  6
CONTINUOUS
 62
     7
 10
66.612901079
 20
70.1469749649
 30
0.0
 40
0.6400000000000007
 50
180.0
 51
270.0
  0
ARC
  5
81
  8
DV1_0
  6
CONTINUOUS
 62
     7
 10
52.532901079
 20
70.1469749649
 30
0.0
 40
0.6400000000000007
 50
270.0
 51
0.0
  0
LINE
  5
82
  8
DV1_0
  6
CONTINUOUS
 62
     7
 10
65.972901079
 20
70.1469749649
 30
0.0
 11
65.972901079
 21
85.1869749649
 31
0.0
  0
LINE
  5
83
  8
DV1_0
  6
CONTINUOUS
 62
     7
 10
53.172901079
 20
85.1869749649
 30
0.0
 11
53.172901079
 21
70.1469749649
 31
0.0
  0
LINE
  5
84
  8
DV1_0
  6
CONTINUOUS
 62
     7
 10
65.972901079
 20
85.1869749649
 30
0.0
 11
65.7881489928
 21
85.5069749649
 31
0.0
  0
LINE
  5
85
  8
DV1_0
  6
CONTINUOUS
 62
     7
 10
53.3576531651
 20
85.5069749649
 30
0.0
 11
53.172901079
 21
85.1869749649
 31
0.0
  0
LINE
  5
86
  8
DV1_0
  6
CONTINUOUS
 62
     7
 10
70.452901079
 20
59.9069749649
 30
0.0
 11
70.452901079
 21
59.9238666144
 31
0.0
  0
LINE
  5
87
  8
DV1_0
  6
CONTINUOUS
 62
     7
 10
48.692901079
 20
59.9238666144
 30
0.0
 11
48.692901079
 21
59.9069749649
 31
0.0
  0
ARC
  5
88
  8
DV1_0
  6
CONTINUOUS
 62
     7
 10
70.580901079
 20
60.2828464337
 30
0.0
 40
0.1920000000000011
 50
165.0
 51
180.0
  0
ARC
  5
89
  8
DV1_0
  6
CONTINUOUS
 62
     7
 10
48.564901079
 20
60.2828464337
 30
0.0
 40
0.1919999999999994
 50
0.0
 51
15.0
  0
LINE
  5
8A
  8
DV1_0
  6
CONTINUOUS
 62
     7
 10
70.388901079
 20
60.0669749649
 30
0.0
 11
70.388901079
 21
60.2828464337
 31
0.0
  0
LINE
  5
8B
  8
DV1_0
  6
CONTINUOUS
 62
     7
 10
48.756901079
 20
60.2828464337
 30
0.0
 11
48.756901079
 21
60.0669749649
 31
0.0
  0
ARC
  5
8C
  8
DV1_0
  6
CONTINUOUS
 62
     7
 10
70.580901079
 20
60.0669749649
 30
0.0
 40
0.1920000000000007
 50
180.0
 51
228.1896851042
  0
ARC
  5
8D
  8
DV1_0
  6
CONTINUOUS
 62
     7
 10
48.564901079
 20
60.0669749649
 30
0.0
 40
0.1920000000000011
 50
311.8103148958
 51
0.0
  0
LINE
  5
8E
  8
DV1_0
  6
CONTINUOUS
 62
     7
 10
48.692901079
 20
60.5469749649
 30
0.0
 11
48.7503588376
 21
60.3325396903
 31
0.0
  0
LINE
  5
8F
  8
DV1_0
  6
CONTINUOUS
 62
     7
 10
70.3954433203
 20
60.3325396903
 30
0.0
 11
70.452901079
 21
60.5469749649
 31
0.0
  0
LINE
  5
90
  8
DV1_0
  6
CONTINUOUS
 62
     7
 10
82.2311985756
 20
52.5469749649
 30
0.0
 11
78.5146035823
 21
52.5469749649
 31
0.0
  0
LINE
  5
91
  8
DV1_0
  6
CONTINUOUS
 62
     7
 10
81.407461079
 20
63.1069749649
 30
0.0
 11
79.338341079
 21
63.1069749649
 31
0.0
  0
ARC
  5
92
  8
DV1_0
  6
CONTINUOUS
 62
     7
 10
78.5146035823
 20
52.8029749649
 30
0.0
 40
0.2560000000000002
 50
210.0
 51
270.0
  0
ARC
  5
93
  8
DV1_0
  6
CONTINUOUS
 62
     7
 10
82.2311985756
 20
52.8029749649
 30
0.0
 40
0.2559999999999996
 50
270.0
 51
330.0
  0
LINE
  5
94
  8
DV1_0
  6
CONTINUOUS
 62
     7
 10
78.292901079
 20
55.1069749649
 30
0.0
 11
78.292901079
 21
52.6749749649
 31
0.0
  0
LINE
  5
95
  8
DV1_0
  6
CONTINUOUS
 62
     7
 10
82.452901079
 20
52.6749749649
 30
0.0
 11
82.452901079
 21
55.1069749649
 31
0.0
  0
LINE
  5
97
  8
DV1_0
  6
HIDDEN2
 62
     1
 10
81.8411363731
 20
55.1069749649
 30
0.0
 11
81.652901079
 21
55.4269749649
 31
0.0
  0
LINE
  5
98
  8
DV1_0
  6
HIDDEN2
 62
     1
 10
79.092901079
 20
55.4269749649
 30
0.0
 11
78.9046657849
 21
55.1069749649
 31
0.0
  0
LINE
  5
99
  8
DV1_0
  6
CONTINUOUS
 62
     7
 10
79.092901079
 20
62.8615349649
 30
0.0
 11
79.092901079
 21
59.9069749649
 31
0.0
  0
LINE
  5
9A
  8
DV1_0
  6
HIDDEN2
 62
     1
 10
79.092901079
 20
59.9069749649
 30
0.0
 11
79.092901079
 21
55.4269749649
 31
0.0
  0
LINE
  5
9B
  8
DV1_0
  6
HIDDEN2
 62
     1
 10
81.652901079
 20
55.4269749649
 30
0.0
 11
81.652901079
 21
59.9069749649
 31
0.0
  0
LINE
  5
9C
  8
DV1_0
  6
CONTINUOUS
 62
     7
 10
81.652901079
 20
59.9069749649
 30
0.0
 11
81.652901079
 21
62.8615349649
 31
0.0
  0
LINE
  5
9D
  8
DV1_0
  6
CONTINUOUS
 62
     7
 10
81.652901079
 20
62.8615349649
 30
0.0
 11
81.407461079
 21
63.1069749649
 31
0.0
  0
LINE
  5
9E
  8
DV1_0
  6
CONTINUOUS
 62
     7
 10
79.338341079
 20
63.1069749649
 30
0.0
 11
79.092901079
 21
62.8615349649
 31
0.0
  0
LINE
  5
9F
  8
DV1_0
  6
CONTINUOUS
 62
     7
 10
55.732901079
 20
36.9394878697
 30
0.0
 11
57.972901079
 21
36.9394878697
 31
0.0
  0
LINE
  5
A0
  8
DV1_0
  6
CONTINUOUS
 62
     7
 10
57.4428720791
 20
28.0989749649
 30
0.0
 11
57.972901079
 21
28.0989749649
 31
0.0
  0
POLYLINE
  5
A1
  8
DV1_0
  6
CONTINUOUS
 62
     7
 66
     1
 10
0.0
 20
0.0
 30
0.0
  0
VERTEX
  5
3BB
  8
DV1_0
  6
CONTINUOUS
 62
     7
 10
57.4428720791
 20
28.0989749649
 30
0.0
  0
VERTEX
  5
3BC
  8
DV1_0
  6
CONTINUOUS
 62
     7
 10
57.2749485778
 20
28.2825195908
 30
0.0
  0
VERTEX
  5
3BD
  8
DV1_0
  6
CONTINUOUS
 62
     7
 10
57.0859969395
 20
28.4645711806
 30
0.0
  0
VERTEX
  5
3BE
  8
DV1_0
  6
CONTINUOUS
 62
     7
 10
56.8830647251
 20
28.6355292588
 30
0.0
  0
VERTEX
  5
3BF
  8
DV1_0
  6
CONTINUOUS
 62
     7
 10
56.6756365506
 20
28.7856153845
 30
0.0
  0
VERTEX
  5
3C0
  8
DV1_0
  6
CONTINUOUS
 62
     7
 10
56.4743151887
 20
28.9065345107
 30
0.0
  0
VERTEX
  5
3C1
  8
DV1_0
  6
CONTINUOUS
 62
     7
 10
56.2890881646
 20
28.9929301
 30
0.0
  0
VERTEX
  5
3C2
  8
DV1_0
  6
CONTINUOUS
 62
     7
 10
56.1277430704
 20
29.0431289369
 30
0.0
  0
VERTEX
  5
3C3
  8
DV1_0
  6
CONTINUOUS
 62
     7
 10
55.9949313027
 20
29.0589749649
 30
0.0
  0
VERTEX
  5
3C4
  8
DV1_0
  6
CONTINUOUS
 62
     7
 10
55.8863970584
 20
29.0431289369
 30
0.0
  0
VERTEX
  5
3C5
  8
DV1_0
  6
CONTINUOUS
 62
     7
 10
55.8019610443
 20
28.9929301
 30
0.0
  0
VERTEX
  5
3C6
  8
DV1_0
  6
CONTINUOUS
 62
     7
 10
55.7490997423
 20
28.9065345107
 30
0.0
  0
VERTEX
  5
3C7
  8
DV1_0
  6
CONTINUOUS
 62
     7
 10
55.7330372299
 20
28.7856153845
 30
0.0
  0
VERTEX
  5
3C8
  8
DV1_0
  6
CONTINUOUS
 62
     7
 10
55.7555543406
 20
28.6355292588
 30
0.0
  0
VERTEX
  5
3C9
  8
DV1_0
  6
CONTINUOUS
 62
     7
 10
55.8145450977
 20
28.4645711806
 30
0.0
  0
VERTEX
  5
3CA
  8
DV1_0
  6
CONTINUOUS
 62
     7
 10
55.9045126769
 20
28.2825195908
 30
0.0
  0
VERTEX
  5
3CB
  8
DV1_0
  6
CONTINUOUS
 62
     7
 10
56.0177958571
 20
28.0989749649
 30
0.0
  0
SEQEND
  5
7B6
  8
DV1_0
  6
CONTINUOUS
 62
     7
  0
LINE
  5
A2
  8
DV1_0
  6
CONTINUOUS
 62
     7
 10
56.0177958571
 20
28.0989749649
 30
0.0
 11
57.4428720791
 21
28.0989749649
 31
0.0
  0
ARC
  5
A3
  8
DV1_0
  6
CONTINUOUS
 62
     7
 10
56.852901079
 20
38.4989749649
 30
0.0
 40
1.92
 50
305.6853347127
 51
328.8910774895
  0
ARC
  5
A4
  8
DV1_0
  6
CONTINUOUS
 62
     7
 10
56.852901079
 20
38.4989749649
 30
0.0
 40
1.919999999999999
 50
211.1089225105
 51
234.3146652873
  0
LINE
  5
A5
  8
DV1_0
  6
CONTINUOUS
 62
     7
 10
55.732901079
 20
36.9394878697
 30
0.0
 11
55.732901079
 21
28.7969447412
 31
0.0
  0
LINE
  5
A6
  8
DV1_0
  6
CONTINUOUS
 62
     7
 10
57.972901079
 20
28.0989749649
 30
0.0
 11
57.972901079
 21
36.9394878697
 31
0.0
  0
LINE
  5
A7
  8
DV1_0
  6
CONTINUOUS
 62
     7
 10
48.532901079
 20
59.8909749649
 30
0.0
 11
48.532901079
 21
54.7709749649
 31
0.0
  0
LINE
  5
A8
  8
DV1_0
  6
CONTINUOUS
 62
     7
 10
48.532901079
 20
54.7709749649
 30
0.0
 11
34.932901079
 21
54.7709749649
 31
0.0
  0
LINE
  5
A9
  8
DV1_0
  6
CONTINUOUS
 62
     7
 10
34.932901079
 20
59.8909749649
 30
0.0
 11
48.532901079
 21
59.8909749649
 31
0.0
  0
LINE
  5
AA
  8
DV1_0
  6
CONTINUOUS
 62
     7
 10
34.932901079
 20
54.7709749649
 30
0.0
 11
34.932901079
 21
59.8909749649
 31
0.0
  0
LINE
  5
AB
  8
DV1_0
  6
CONTINUOUS
 62
     7
 10
33.012901079
 20
54.7709749649
 30
0.0
 11
34.932901079
 21
54.7709749649
 31
0.0
  0
LINE
  5
AC
  8
DV1_0
  6
CONTINUOUS
 62
     7
 10
33.012901079
 20
54.7709749649
 30
0.0
 11
33.012901079
 21
59.8909749649
 31
0.0
  0
LINE
  5
AD
  8
DV1_0
  6
CONTINUOUS
 62
     7
 10
33.012901079
 20
59.8909749649
 30
0.0
 11
34.932901079
 21
59.8909749649
 31
0.0
  0
LINE
  5
AE
  8
DV1_0
  6
CONTINUOUS
 62
     7
 10
46.208101079
 20
63.0909749649
 30
0.0
 11
44.137701079
 21
63.0909749649
 31
0.0
  0
LINE
  5
AF
  8
DV1_0
  6
CONTINUOUS
 62
     7
 10
43.892901079
 20
62.8461749649
 30
0.0
 11
43.892901079
 21
59.8909749649
 31
0.0
  0
LINE
  5
B0
  8
DV1_0
  6
CONTINUOUS
 62
     7
 10
46.452901079
 20
59.8909749649
 30
0.0
 11
46.452901079
 21
62.8461749649
 31
0.0
  0
LINE
  5
B1
  8
DV1_0
  6
CONTINUOUS
 62
     7
 10
46.452901079
 20
62.8461749649
 30
0.0
 11
46.208101079
 21
63.0909749649
 31
0.0
  0
LINE
  5
B2
  8
DV1_0
  6
CONTINUOUS
 62
     7
 10
44.137701079
 20
63.0909749649
 30
0.0
 11
43.892901079
 21
62.8461749649
 31
0.0
  0
LINE
  5
B3
  8
DV1_0
  6
CONTINUOUS
 62
     7
 10
53.0712411965
 20
34.9469749649
 30
0.0
 11
50.229518074
 21
34.9469749649
 31
0.0
  0
LINE
  5
B4
  8
DV1_0
  6
CONTINUOUS
 62
     7
 10
50.0545911383
 20
34.9949749649
 30
0.0
 11
50.0503796352
 21
34.9949749649
 31
0.0
  0
LINE
  5
B5
  8
DV1_0
  6
CONTINUOUS
 62
     7
 10
50.7520149693
 20
34.9949749649
 30
0.0
 11
50.9529558043
 21
34.9949749649
 31
0.0
  0
LINE
  5
B6
  8
DV1_0
  6
CONTINUOUS
 62
     7
 10
52.3478034662
 20
34.9949749649
 30
0.0
 11
52.5487443012
 21
34.9949749649
 31
0.0
  0
LINE
  5
B7
  8
DV1_0
  6
CONTINUOUS
 62
     7
 10
53.2461681322
 20
34.9949749649
 30
0.0
 11
53.2503796352
 21
34.9949749649
 31
0.0
  0
ARC
  5
B8
  8
DV1_0
  6
CONTINUOUS
 62
     7
 10
52.8974562167
 20
36.3917183364
 30
0.0
 40
1.439615242270645
 50
255.9820553713
 51
284.0179446287
  0
POLYLINE
  5
B9
  8
DV1_0
  6
CONTINUOUS
 62
     7
 66
     1
 10
0.0
 20
0.0
 30
0.0
  0
VERTEX
  5
3CC
  8
DV1_0
  6
CONTINUOUS
 62
     7
 10
52.3478034662
 20
34.9949749649
 30
0.0
  0
VERTEX
  5
3CD
  8
DV1_0
  6
CONTINUOUS
 62
     7
 10
52.3128811626
 20
34.9909830987
 30
0.0
  0
VERTEX
  5
3CE
  8
DV1_0
  6
CONTINUOUS
 62
     7
 10
52.2779511229
 20
34.9871662734
 30
0.0
  0
VERTEX
  5
3CF
  8
DV1_0
  6
CONTINUOUS
 62
     7
 10
52.2430144568
 20
34.9835277414
 30
0.0
  0
VERTEX
  5
3D0
  8
DV1_0
  6
CONTINUOUS
 62
     7
 10
52.208072274
 20
34.9800707551
 30
0.0
  0
VERTEX
  5
3D1
  8
DV1_0
  6
CONTINUOUS
 62
     7
 10
52.1731256844
 20
34.9767985672
 30
0.0
  0
VERTEX
  5
3D2
  8
DV1_0
  6
CONTINUOUS
 62
     7
 10
52.1381757978
 20
34.9737144301
 30
0.0
  0
VERTEX
  5
3D3
  8
DV1_0
  6
CONTINUOUS
 62
     7
 10
52.1032237239
 20
34.9708215962
 30
0.0
  0
VERTEX
  5
3D4
  8
DV1_0
  6
CONTINUOUS
 62
     7
 10
52.0682705725
 20
34.9681233181
 30
0.0
  0
VERTEX
  5
3D5
  8
DV1_0
  6
CONTINUOUS
 62
     7
 10
52.0333174535
 20
34.9656228482
 30
0.0
  0
VERTEX
  5
3D6
  8
DV1_0
  6
CONTINUOUS
 62
     7
 10
51.9983654766
 20
34.963323439
 30
0.0
  0
VERTEX
  5
3D7
  8
DV1_0
  6
CONTINUOUS
 62
     7
 10
51.9634157515
 20
34.9612283431
 30
0.0
  0
VERTEX
  5
3D8
  8
DV1_0
  6
CONTINUOUS
 62
     7
 10
51.9284693881
 20
34.9593408128
 30
0.0
  0
VERTEX
  5
3D9
  8
DV1_0
  6
CONTINUOUS
 62
     7
 10
51.8935274962
 20
34.9576641007
 30
0.0
  0
VERTEX
  5
3DA
  8
DV1_0
  6
CONTINUOUS
 62
     7
 10
51.8585911855
 20
34.9562014593
 30
0.0
  0
VERTEX
  5
3DB
  8
DV1_0
  6
CONTINUOUS
 62
     7
 10
51.8236615659
 20
34.9549561411
 30
0.0
  0
VERTEX
  5
3DC
  8
DV1_0
  6
CONTINUOUS
 62
     7
 10
51.7887397471
 20
34.9539313985
 30
0.0
  0
VERTEX
  5
3DD
  8
DV1_0
  6
CONTINUOUS
 62
     7
 10
51.7538268389
 20
34.953130484
 30
0.0
  0
VERTEX
  5
3DE
  8
DV1_0
  6
CONTINUOUS
 62
     7
 10
51.718923951
 20
34.9525566501
 30
0.0
  0
VERTEX
  5
3DF
  8
DV1_0
  6
CONTINUOUS
 62
     7
 10
51.6840321934
 20
34.9522131494
 30
0.0
  0
VERTEX
  5
3E0
  8
DV1_0
  6
CONTINUOUS
 62
     7
 10
51.6491526757
 20
34.9521032342
 30
0.0
  0
VERTEX
  5
3E1
  8
DV1_0
  6
CONTINUOUS
 62
     7
 10
51.6142831165
 20
34.9522284352
 30
0.0
  0
VERTEX
  5
3E2
  8
DV1_0
  6
CONTINUOUS
 62
     7
 10
51.5794204294
 20
34.9525859129
 30
0.0
  0
VERTEX
  5
3E3
  8
DV1_0
  6
CONTINUOUS
 62
     7
 10
51.5445645168
 20
34.9531723648
 30
0.0
  0
VERTEX
  5
3E4
  8
DV1_0
  6
CONTINUOUS
 62
     7
 10
51.5097152808
 20
34.9539844884
 30
0.0
  0
VERTEX
  5
3E5
  8
DV1_0
  6
CONTINUOUS
 62
     7
 10
51.4748726237
 20
34.9550189812
 30
0.0
  0
VERTEX
  5
3E6
  8
DV1_0
  6
CONTINUOUS
 62
     7
 10
51.440036448
 20
34.9562725407
 30
0.0
  0
VERTEX
  5
3E7
  8
DV1_0
  6
CONTINUOUS
 62
     7
 10
51.4052066558
 20
34.9577418643
 30
0.0
  0
VERTEX
  5
3E8
  8
DV1_0
  6
CONTINUOUS
 62
     7
 10
51.3703831494
 20
34.9594236496
 30
0.0
  0
VERTEX
  5
3E9
  8
DV1_0
  6
CONTINUOUS
 62
     7
 10
51.3355658312
 20
34.961314594
 30
0.0
  0
VERTEX
  5
3EA
  8
DV1_0
  6
CONTINUOUS
 62
     7
 10
51.3007546035
 20
34.9634113949
 30
0.0
  0
VERTEX
  5
3EB
  8
DV1_0
  6
CONTINUOUS
 62
     7
 10
51.2659493685
 20
34.96571075
 30
0.0
  0
VERTEX
  5
3EC
  8
DV1_0
  6
CONTINUOUS
 62
     7
 10
51.2311500285
 20
34.9682093567
 30
0.0
  0
VERTEX
  5
3ED
  8
DV1_0
  6
CONTINUOUS
 62
     7
 10
51.1963564858
 20
34.9709039124
 30
0.0
  0
VERTEX
  5
3EE
  8
DV1_0
  6
CONTINUOUS
 62
     7
 10
51.1615686427
 20
34.9737911147
 30
0.0
  0
VERTEX
  5
3EF
  8
DV1_0
  6
CONTINUOUS
 62
     7
 10
51.1267864015
 20
34.976867661
 30
0.0
  0
VERTEX
  5
3F0
  8
DV1_0
  6
CONTINUOUS
 62
     7
 10
51.0920096645
 20
34.9801302488
 30
0.0
  0
VERTEX
  5
3F1
  8
DV1_0
  6
CONTINUOUS
 62
     7
 10
51.057238334
 20
34.9835755756
 30
0.0
  0
VERTEX
  5
3F2
  8
DV1_0
  6
CONTINUOUS
 62
     7
 10
51.0224723122
 20
34.9872003389
 30
0.0
  0
VERTEX
  5
3F3
  8
DV1_0
  6
CONTINUOUS
 62
     7
 10
50.9877115016
 20
34.9910012362
 30
0.0
  0
VERTEX
  5
3F4
  8
DV1_0
  6
CONTINUOUS
 62
     7
 10
50.9529558043
 20
34.9949749649
 30
0.0
  0
SEQEND
  5
7B5
  8
DV1_0
  6
CONTINUOUS
 62
     7
  0
ARC
  5
BA
  8
DV1_0
  6
CONTINUOUS
 62
     7
 10
50.4033030538
 20
36.3917183364
 30
0.0
 40
1.43961524227065
 50
255.9820553713
 51
284.0179446287
  0
LINE
  5
BB
  8
DV1_0
  6
CONTINUOUS
 62
     7
 10
52.3478034662
 20
37.3469749649
 30
0.0
 11
52.3478034662
 21
34.9949749649
 31
0.0
  0
LINE
  5
BC
  8
DV1_0
  6
CONTINUOUS
 62
     7
 10
50.9529558043
 20
34.9949749649
 30
0.0
 11
50.9529558043
 21
37.3469749649
 31
0.0
  0
ARC
  5
BD
  8
DV1_0
  6
CONTINUOUS
 62
     7
 10
51.6503796352
 20
34.7869749649
 30
0.0
 40
1.92
 50
229.9947991151
 51
310.0052008849
  0
LINE
  5
BE
  8
DV1_0
  6
CONTINUOUS
 62
     7
 10
50.3703796352
 20
34.8829749649
 30
0.0
 11
50.3703796352
 21
33.4143278872
 31
0.0
  0
LINE
  5
BF
  8
DV1_0
  6
CONTINUOUS
 62
     7
 10
52.9303796352
 20
33.4143278872
 30
0.0
 11
52.9303796352
 21
34.8829749649
 31
0.0
  0
ARC
  5
C0
  8
DV1_0
  6
CONTINUOUS
 62
     7
 10
50.3063796352
 20
34.8829749649
 30
0.0
 40
0.0639999999999996
 50
0.0
 51
90.0
  0
ARC
  5
C1
  8
DV1_0
  6
CONTINUOUS
 62
     7
 10
52.9943796352
 20
34.8829749649
 30
0.0
 40
0.0640000000000007
 50
90.0
 51
180.0
  0
LINE
  5
C2
  8
DV1_0
  6
CONTINUOUS
 62
     7
 10
50.0503796352
 20
34.9949749649
 30
0.0
 11
50.229518074
 21
34.9469749649
 31
0.0
  0
LINE
  5
C3
  8
DV1_0
  6
CONTINUOUS
 62
     7
 10
53.0712411965
 20
34.9469749649
 30
0.0
 11
53.2503796352
 21
34.9949749649
 31
0.0
  0
LINE
  5
C4
  8
DV1_0
  6
CONTINUOUS
 62
     7
 10
50.0503796352
 20
37.5069749649
 30
0.0
 11
50.0503796352
 21
34.9949749649
 31
0.0
  0
LINE
  5
C5
  8
DV1_0
  6
CONTINUOUS
 62
     7
 10
53.2503796352
 20
34.9949749649
 30
0.0
 11
53.2503796352
 21
37.5069749649
 31
0.0
  0
ARC
  5
C6
  8
DV1_0
  6
CONTINUOUS
 62
     7
 10
50.4983796352
 20
33.4143278872
 30
0.0
 40
0.1279999999999993
 50
180.0
 51
229.9947991151
  0
ARC
  5
C7
  8
DV1_0
  6
CONTINUOUS
 62
     7
 10
52.8023796352
 20
33.4143278872
 30
0.0
 40
0.1280000000000003
 50
310.0052008849
 51
0.0
  0
LINE
  5
C8
  8
DV1_0
  6
CONTINUOUS
 62
     7
 10
70.036901079
 20
62.8189749649
 30
0.0
 11
49.108901079
 21
62.8189749649
 31
0.0
  0
LINE
  5
C9
  8
DV1_0
  6
CONTINUOUS
 62
     7
 10
70.036901079
 20
61.5069749649
 30
0.0
 11
49.108901079
 21
61.5069749649
 31
0.0
  0
ARC
  5
CA
  8
DV1_0
  6
CONTINUOUS
 62
     7
 10
49.108901079
 20
62.4989749649
 30
0.0
 40
0.3200000000000003
 50
90.0
 51
180.0
  0
ARC
  5
CB
  8
DV1_0
  6
CONTINUOUS
 62
     7
 10
70.036901079
 20
62.4989749649
 30
0.0
 40
0.3200000000000003
 50
0.0
 51
90.0
  0
LINE
  5
CC
  8
DV1_0
  6
CONTINUOUS
 62
     7
 10
48.788901079
 20
62.4989749649
 30
0.0
 11
48.788901079
 21
61.8269749649
 31
0.0
  0
LINE
  5
CD
  8
DV1_0
  6
CONTINUOUS
 62
     7
 10
70.356901079
 20
61.8269749649
 30
0.0
 11
70.356901079
 21
62.4989749649
 31
0.0
  0
ARC
  5
CE
  8
DV1_0
  6
CONTINUOUS
 62
     7
 10
49.108901079
 20
61.8269749649
 30
0.0
 40
0.3200000000000003
 50
180.0
 51
270.0
  0
ARC
  5
CF
  8
DV1_0
  6
CONTINUOUS
 62
     7
 10
70.036901079
 20
61.8269749649
 30
0.0
 40
0.3200000000000003
 50
270.0
 51
0.0
  0
LINE
  5
D0
  8
DV1_0
  6
CONTINUOUS
 62
     7
 10
34.0346035823
 20
62.4509749649
 30
0.0
 11
37.7511985756
 21
62.4509749649
 31
0.0
  0
ARC
  5
D1
  8
DV1_0
  6
CONTINUOUS
 62
     7
 10
37.7511985756
 20
62.1949749649
 30
0.0
 40
0.2560000000000022
 50
30.0
 51
90.0
  0
ARC
  5
D2
  8
DV1_0
  6
CONTINUOUS
 62
     7
 10
34.0346035823
 20
62.1949749649
 30
0.0
 40
0.2560000000000007
 50
90.0
 51
150.0
  0
LINE
  5
D3
  8
DV1_0
  6
CONTINUOUS
 62
     7
 10
37.972901079
 20
59.8909749649
 30
0.0
 11
37.972901079
 21
62.3229749649
 31
0.0
  0
LINE
  5
D4
  8
DV1_0
  6
CONTINUOUS
 62
     7
 10
33.812901079
 20
62.3229749649
 30
0.0
 11
33.812901079
 21
59.8909749649
 31
0.0
  0
LINE
  5
D5
  8
DV1_0
  6
CONTINUOUS
 62
     7
 10
37.7511985756
 20
62.4509749649
 30
0.0
 11
34.0346035823
 21
62.4509749649
 31
0.0
  0
ARC
  5
D6
  8
DV1_0
  6
CONTINUOUS
 62
     7
 10
37.7511985756
 20
62.1949749649
 30
0.0
 40
0.2560000000000022
 50
30.0
 51
90.0
  0
ARC
  5
D7
  8
DV1_0
  6
CONTINUOUS
 62
     7
 10
34.0346035823
 20
62.1949749649
 30
0.0
 40
0.2560000000000007
 50
90.0
 51
150.0
  0
LINE
  5
D8
  8
DV1_0
  6
CONTINUOUS
 62
     7
 10
37.972901079
 20
59.8909749649
 30
0.0
 11
37.972901079
 21
62.3229749649
 31
0.0
  0
LINE
  5
D9
  8
DV1_0
  6
CONTINUOUS
 62
     7
 10
33.812901079
 20
62.3229749649
 30
0.0
 11
33.812901079
 21
59.8909749649
 31
0.0
  0
LINE
  5
DA
  8
DV1_0
  6
CONTINUOUS
 62
     7
 10
54.452901079
 20
35.2669749649
 30
0.0
 11
53.2503796352
 21
35.2669749649
 31
0.0
  0
LINE
  5
DB
  8
DV1_0
  6
CONTINUOUS
 62
     7
 10
50.0503796352
 20
35.2669749649
 30
0.0
 11
32.692901079
 21
35.2669749649
 31
0.0
  0
LINE
  5
DC
  8
DV1_0
  6
CONTINUOUS
 62
     7
 10
54.772901079
 20
36.2269749649
 30
0.0
 11
53.2503796352
 21
36.2269749649
 31
0.0
  0
LINE
  5
DD
  8
DV1_0
  6
CONTINUOUS
 62
     7
 10
50.0503796352
 20
36.2269749649
 30
0.0
 11
32.372901079
 21
36.2269749649
 31
0.0
  0
LINE
  5
DE
  8
DV1_0
  6
CONTINUOUS
 62
     7
 10
42.4503461486
 20
30.7869749649
 30
0.0
 11
35.5983890188
 21
30.7869749649
 31
0.0
  0
LINE
  5
DF
  8
DV1_0
  6
CONTINUOUS
 62
     7
 10
44.532901079
 20
31.0731542021
 30
0.0
 11
44.532901079
 21
35.2029749649
 31
0.0
  0
LINE
  5
E0
  8
DV1_0
  6
CONTINUOUS
 62
     7
 10
42.612901079
 20
35.2029749649
 30
0.0
 11
42.612901079
 21
31.0731542021
 31
0.0
  0
LINE
  5
E1
  8
DV1_0
  6
CONTINUOUS
 62
     7
 10
44.692901079
 20
30.7869749649
 30
0.0
 11
44.532901079
 21
30.9469749649
 31
0.0
  0
LINE
  5
E2
  8
DV1_0
  6
CONTINUOUS
 62
     7
 10
42.452901079
 20
30.7869749649
 30
0.0
 11
42.4503461486
 21
30.7869749649
 31
0.0
  0
LINE
  5
E3
  8
DV1_0
  6
CONTINUOUS
 62
     7
 10
42.612901079
 20
30.9469749649
 30
0.0
 11
42.612901079
 21
31.0731542021
 31
0.0
  0
LINE
  5
E4
  8
DV1_0
  6
CONTINUOUS
 62
     7
 10
44.692901079
 20
30.7869749649
 30
0.0
 11
42.452901079
 21
30.7869749649
 31
0.0
  0
LINE
  5
E5
  8
DV1_0
  6
CONTINUOUS
 62
     7
 10
42.452901079
 20
30.7869749649
 30
0.0
 11
42.612901079
 21
30.9469749649
 31
0.0
  0
LINE
  5
E6
  8
DV1_0
  6
CONTINUOUS
 62
     7
 10
44.532901079
 20
31.0731542021
 30
0.0
 11
44.532901079
 21
30.9469749649
 31
0.0
  0
LINE
  5
E7
  8
DV1_0
  6
CONTINUOUS
 62
     7
 10
44.6954560094
 20
30.7869749649
 30
0.0
 11
44.692901079
 21
30.7869749649
 31
0.0
  0
LINE
  5
E8
  8
DV1_0
  6
CONTINUOUS
 62
     7
 10
34.4758340884
 20
30.7869749649
 30
0.0
 11
33.652901079
 21
30.7869749649
 31
0.0
  0
ARC
  5
E9
  8
DV1_0
  6
CONTINUOUS
 62
     7
 10
34.0835305813
 20
35.103839925
 30
0.0
 40
0.1404224764052101
 50
1.2792787012
 51
44.9085293026
  0
ARC
  5
EA
  8
DV1_0
  6
CONTINUOUS
 62
     7
 10
34.7955321311
 20
35.1100680265
 30
0.0
 40
0.4847956324776386
 50
359.6344427086
 51
11.0485929136
  0
LINE
  5
EB
  8
DV1_0
  6
CONTINUOUS
 62
     7
 10
35.2803178964
 20
35.1069749649
 30
0.0
 11
35.2803178964
 21
31.1069749649
 31
0.0
  0
LINE
  5
EC
  8
DV1_0
  6
CONTINUOUS
 62
     7
 10
35.2803178964
 20
31.1069749649
 30
0.0
 11
35.2810352019
 21
31.0666275848
 31
0.0
  0
LINE
  5
ED
  8
DV1_0
  6
CONTINUOUS
 62
     7
 10
34.2271894233
 20
31.0666275848
 30
0.0
 11
34.2239180573
 21
31.1069749649
 31
0.0
  0
LINE
  5
EE
  8
DV1_0
  6
CONTINUOUS
 62
     7
 10
34.2239180573
 20
31.1069749649
 30
0.0
 11
34.2239180573
 21
35.1069749649
 31
0.0
  0
POLYLINE
  5
EF
  8
DV1_0
  6
CONTINUOUS
 62
     7
 66
     1
 10
0.0
 20
0.0
 30
0.0
  0
VERTEX
  5
3F5
  8
DV1_0
  6
CONTINUOUS
 62
     7
 10
35.2810352019
 20
31.0666275848
 30
0.0
  0
VERTEX
  5
3F6
  8
DV1_0
  6
CONTINUOUS
 62
     7
 10
35.2841925621
 20
31.0626815338
 30
0.0
  0
VERTEX
  5
3F7
  8
DV1_0
  6
CONTINUOUS
 62
     7
 10
35.2873789977
 20
31.0587201604
 30
0.0
  0
VERTEX
  5
3F8
  8
DV1_0
  6
CONTINUOUS
 62
     7
 10
35.2905951329
 20
31.0547432781
 30
0.0
  0
VERTEX
  5
3F9
  8
DV1_0
  6
CONTINUOUS
 62
     7
 10
35.2938415919
 20
31.0507507005
 30
0.0
  0
VERTEX
  5
3FA
  8
DV1_0
  6
CONTINUOUS
 62
     7
 10
35.2971189991
 20
31.0467422411
 30
0.0
  0
VERTEX
  5
3FB
  8
DV1_0
  6
CONTINUOUS
 62
     7
 10
35.3004279788
 20
31.0427177133
 30
0.0
  0
VERTEX
  5
3FC
  8
DV1_0
  6
CONTINUOUS
 62
     7
 10
35.3037691551
 20
31.0386769307
 30
0.0
  0
VERTEX
  5
3FD
  8
DV1_0
  6
CONTINUOUS
 62
     7
 10
35.3071431524
 20
31.0346197067
 30
0.0
  0
VERTEX
  5
3FE
  8
DV1_0
  6
CONTINUOUS
 62
     7
 10
35.310550595
 20
31.030545855
 30
0.0
  0
VERTEX
  5
3FF
  8
DV1_0
  6
CONTINUOUS
 62
     7
 10
35.3139921071
 20
31.0264551889
 30
0.0
  0
VERTEX
  5
400
  8
DV1_0
  6
CONTINUOUS
 62
     7
 10
35.317468313
 20
31.022347522
 30
0.0
  0
VERTEX
  5
401
  8
DV1_0
  6
CONTINUOUS
 62
     7
 10
35.320979837
 20
31.0182226679
 30
0.0
  0
VERTEX
  5
402
  8
DV1_0
  6
CONTINUOUS
 62
     7
 10
35.3245273034
 20
31.0140804399
 30
0.0
  0
VERTEX
  5
403
  8
DV1_0
  6
CONTINUOUS
 62
     7
 10
35.3281113365
 20
31.0099206516
 30
0.0
  0
VERTEX
  5
404
  8
DV1_0
  6
CONTINUOUS
 62
     7
 10
35.3317325605
 20
31.0057431166
 30
0.0
  0
VERTEX
  5
405
  8
DV1_0
  6
CONTINUOUS
 62
     7
 10
35.3353915997
 20
31.0015476483
 30
0.0
  0
VERTEX
  5
406
  8
DV1_0
  6
CONTINUOUS
 62
     7
 10
35.3390890783
 20
30.9973340602
 30
0.0
  0
VERTEX
  5
407
  8
DV1_0
  6
CONTINUOUS
 62
     7
 10
35.3428256207
 20
30.9931021658
 30
0.0
  0
VERTEX
  5
408
  8
DV1_0
  6
CONTINUOUS
 62
     7
 10
35.3466018512
 20
30.9888517787
 30
0.0
  0
VERTEX
  5
409
  8
DV1_0
  6
CONTINUOUS
 62
     7
 10
35.350418394
 20
30.9845827123
 30
0.0
  0
VERTEX
  5
40A
  8
DV1_0
  6
CONTINUOUS
 62
     7
 10
35.3542758734
 20
30.9802947802
 30
0.0
  0
VERTEX
  5
40B
  8
DV1_0
  6
CONTINUOUS
 62
     7
 10
35.3581749136
 20
30.9759877959
 30
0.0
  0
VERTEX
  5
40C
  8
DV1_0
  6
CONTINUOUS
 62
     7
 10
35.3621141134
 20
30.9716643706
 30
0.0
  0
VERTEX
  5
40D
  8
DV1_0
  6
CONTINUOUS
 62
     7
 10
35.3660908722
 20
30.9673286614
 30
0.0
  0
VERTEX
  5
40E
  8
DV1_0
  6
CONTINUOUS
 62
     7
 10
35.3701040157
 20
30.9629828005
 30
0.0
  0
VERTEX
  5
40F
  8
DV1_0
  6
CONTINUOUS
 62
     7
 10
35.3741523697
 20
30.9586289199
 30
0.0
  0
VERTEX
  5
410
  8
DV1_0
  6
CONTINUOUS
 62
     7
 10
35.3782347598
 20
30.9542691519
 30
0.0
  0
VERTEX
  5
411
  8
DV1_0
  6
CONTINUOUS
 62
     7
 10
35.3823500117
 20
30.9499056284
 30
0.0
  0
VERTEX
  5
412
  8
DV1_0
  6
CONTINUOUS
 62
     7
 10
35.3864969511
 20
30.9455404816
 30
0.0
  0
VERTEX
  5
413
  8
DV1_0
  6
CONTINUOUS
 62
     7
 10
35.3906744037
 20
30.9411758438
 30
0.0
  0
VERTEX
  5
414
  8
DV1_0
  6
CONTINUOUS
 62
     7
 10
35.3948811952
 20
30.9368138469
 30
0.0
  0
VERTEX
  5
415
  8
DV1_0
  6
CONTINUOUS
 62
     7
 10
35.3991161513
 20
30.932456623
 30
0.0
  0
VERTEX
  5
416
  8
DV1_0
  6
CONTINUOUS
 62
     7
 10
35.4033780976
 20
30.9281063045
 30
0.0
  0
VERTEX
  5
417
  8
DV1_0
  6
CONTINUOUS
 62
     7
 10
35.4076658599
 20
30.9237650232
 30
0.0
  0
VERTEX
  5
418
  8
DV1_0
  6
CONTINUOUS
 62
     7
 10
35.4119782638
 20
30.9194349115
 30
0.0
  0
VERTEX
  5
419
  8
DV1_0
  6
CONTINUOUS
 62
     7
 10
35.416314135
 20
30.9151181013
 30
0.0
  0
VERTEX
  5
41A
  8
DV1_0
  6
CONTINUOUS
 62
     7
 10
35.4206722993
 20
30.9108167249
 30
0.0
  0
VERTEX
  5
41B
  8
DV1_0
  6
CONTINUOUS
 62
     7
 10
35.4250515822
 20
30.9065329143
 30
0.0
  0
VERTEX
  5
41C
  8
DV1_0
  6
CONTINUOUS
 62
     7
 10
35.4294508096
 20
30.9022688016
 30
0.0
  0
VERTEX
  5
41D
  8
DV1_0
  6
CONTINUOUS
 62
     7
 10
35.433868807
 20
30.8980265191
 30
0.0
  0
VERTEX
  5
41E
  8
DV1_0
  6
CONTINUOUS
 62
     7
 10
35.4383044002
 20
30.8938081987
 30
0.0
  0
VERTEX
  5
41F
  8
DV1_0
  6
CONTINUOUS
 62
     7
 10
35.4427564149
 20
30.8896159727
 30
0.0
  0
VERTEX
  5
420
  8
DV1_0
  6
CONTINUOUS
 62
     7
 10
35.4472236767
 20
30.8854519732
 30
0.0
  0
VERTEX
  5
421
  8
DV1_0
  6
CONTINUOUS
 62
     7
 10
35.4517050114
 20
30.8813183322
 30
0.0
  0
VERTEX
  5
422
  8
DV1_0
  6
CONTINUOUS
 62
     7
 10
35.4561977521
 20
30.8772195872
 30
0.0
  0
VERTEX
  5
423
  8
DV1_0
  6
CONTINUOUS
 62
     7
 10
35.4606962685
 20
30.8731625958
 30
0.0
  0
VERTEX
  5
424
  8
DV1_0
  6
CONTINUOUS
 62
     7
 10
35.4651949412
 20
30.8691529708
 30
0.0
  0
VERTEX
  5
425
  8
DV1_0
  6
CONTINUOUS
 62
     7
 10
35.4696881505
 20
30.865196325
 30
0.0
  0
VERTEX
  5
426
  8
DV1_0
  6
CONTINUOUS
 62
     7
 10
35.4741702772
 20
30.8612982713
 30
0.0
  0
VERTEX
  5
427
  8
DV1_0
  6
CONTINUOUS
 62
     7
 10
35.4786357015
 20
30.8574644224
 30
0.0
  0
VERTEX
  5
428
  8
DV1_0
  6
CONTINUOUS
 62
     7
 10
35.4830788041
 20
30.8537003911
 30
0.0
  0
VERTEX
  5
429
  8
DV1_0
  6
CONTINUOUS
 62
     7
 10
35.4874939654
 20
30.8500117902
 30
0.0
  0
VERTEX
  5
42A
  8
DV1_0
  6
CONTINUOUS
 62
     7
 10
35.4918755659
 20
30.8464042325
 30
0.0
  0
VERTEX
  5
42B
  8
DV1_0
  6
CONTINUOUS
 62
     7
 10
35.4962179861
 20
30.8428833307
 30
0.0
  0
VERTEX
  5
42C
  8
DV1_0
  6
CONTINUOUS
 62
     7
 10
35.5005156065
 20
30.8394546978
 30
0.0
  0
VERTEX
  5
42D
  8
DV1_0
  6
CONTINUOUS
 62
     7
 10
35.5047617087
 20
30.8361243959
 30
0.0
  0
VERTEX
  5
42E
  8
DV1_0
  6
CONTINUOUS
 62
     7
 10
35.5089510875
 20
30.8328960124
 30
0.0
  0
VERTEX
  5
42F
  8
DV1_0
  6
CONTINUOUS
 62
     7
 10
35.5130803937
 20
30.8297714477
 30
0.0
  0
VERTEX
  5
430
  8
DV1_0
  6
CONTINUOUS
 62
     7
 10
35.5171462781
 20
30.8267526023
 30
0.0
  0
VERTEX
  5
431
  8
DV1_0
  6
CONTINUOUS
 62
     7
 10
35.5211453914
 20
30.8238413766
 30
0.0
  0
VERTEX
  5
432
  8
DV1_0
  6
CONTINUOUS
 62
     7
 10
35.5250743844
 20
30.8210396709
 30
0.0
  0
VERTEX
  5
433
  8
DV1_0
  6
CONTINUOUS
 62
     7
 10
35.5289299077
 20
30.8183493858
 30
0.0
  0
VERTEX
  5
434
  8
DV1_0
  6
CONTINUOUS
 62
     7
 10
35.5327086121
 20
30.8157724215
 30
0.0
  0
VERTEX
  5
435
  8
DV1_0
  6
CONTINUOUS
 62
     7
 10
35.5364071485
 20
30.8133106785
 30
0.0
  0
VERTEX
  5
436
  8
DV1_0
  6
CONTINUOUS
 62
     7
 10
35.5400221674
 20
30.8109660573
 30
0.0
  0
VERTEX
  5
437
  8
DV1_0
  6
CONTINUOUS
 62
     7
 10
35.5435503196
 20
30.8087404582
 30
0.0
  0
VERTEX
  5
438
  8
DV1_0
  6
CONTINUOUS
 62
     7
 10
35.5469844864
 20
30.8066365671
 30
0.0
  0
VERTEX
  5
439
  8
DV1_0
  6
CONTINUOUS
 62
     7
 10
35.5503206184
 20
30.8046542596
 30
0.0
  0
VERTEX
  5
43A
  8
DV1_0
  6
CONTINUOUS
 62
     7
 10
35.553559971
 20
30.8027912201
 30
0.0
  0
VERTEX
  5
43B
  8
DV1_0
  6
CONTINUOUS
 62
     7
 10
35.5567037993
 20
30.8010451334
 30
0.0
  0
VERTEX
  5
43C
  8
DV1_0
  6
CONTINUOUS
 62
     7
 10
35.5597533586
 20
30.799413684
 30
0.0
  0
VERTEX
  5
43D
  8
DV1_0
  6
CONTINUOUS
 62
     7
 10
35.5627099041
 20
30.7978945566
 30
0.0
  0
VERTEX
  5
43E
  8
DV1_0
  6
CONTINUOUS
 62
     7
 10
35.565574691
 20
30.7964854359
 30
0.0
  0
VERTEX
  5
43F
  8
DV1_0
  6
CONTINUOUS
 62
     7
 10
35.5683489745
 20
30.7951840063
 30
0.0
  0
VERTEX
  5
440
  8
DV1_0
  6
CONTINUOUS
 62
     7
 10
35.5710340099
 20
30.7939879527
 30
0.0
  0
VERTEX
  5
441
  8
DV1_0
  6
CONTINUOUS
 62
     7
 10
35.5736310524
 20
30.7928949595
 30
0.0
  0
VERTEX
  5
442
  8
DV1_0
  6
CONTINUOUS
 62
     7
 10
35.5761413573
 20
30.7919027115
 30
0.0
  0
VERTEX
  5
443
  8
DV1_0
  6
CONTINUOUS
 62
     7
 10
35.5785661797
 20
30.7910088932
 30
0.0
  0
VERTEX
  5
444
  8
DV1_0
  6
CONTINUOUS
 62
     7
 10
35.5809067749
 20
30.7902111893
 30
0.0
  0
VERTEX
  5
445
  8
DV1_0
  6
CONTINUOUS
 62
     7
 10
35.583164398
 20
30.7895072844
 30
0.0
  0
VERTEX
  5
446
  8
DV1_0
  6
CONTINUOUS
 62
     7
 10
35.5853403044
 20
30.7888948632
 30
0.0
  0
VERTEX
  5
447
  8
DV1_0
  6
CONTINUOUS
 62
     7
 10
35.5874357493
 20
30.7883716102
 30
0.0
  0
VERTEX
  5
448
  8
DV1_0
  6
CONTINUOUS
 62
     7
 10
35.5894519879
 20
30.7879352101
 30
0.0
  0
VERTEX
  5
449
  8
DV1_0
  6
CONTINUOUS
 62
     7
 10
35.5913902753
 20
30.7875833475
 30
0.0
  0
VERTEX
  5
44A
  8
DV1_0
  6
CONTINUOUS
 62
     7
 10
35.5932518669
 20
30.787313707
 30
0.0
  0
VERTEX
  5
44B
  8
DV1_0
  6
CONTINUOUS
 62
     7
 10
35.5950380179
 20
30.7871239734
 30
0.0
  0
VERTEX
  5
44C
  8
DV1_0
  6
CONTINUOUS
 62
     7
 10
35.5967499835
 20
30.7870118311
 30
0.0
  0
VERTEX
  5
44D
  8
DV1_0
  6
CONTINUOUS
 62
     7
 10
35.5983890188
 20
30.7869749649
 30
0.0
  0
SEQEND
  5
7B4
  8
DV1_0
  6
CONTINUOUS
 62
     7
  0
LINE
  5
F0
  8
DV1_0
  6
CONTINUOUS
 62
     7
 10
34.4793241882
 20
30.7869749649
 30
0.0
 11
34.4758340884
 21
30.7869749649
 31
0.0
  0
POLYLINE
  5
F1
  8
DV1_0
  6
CONTINUOUS
 62
     7
 66
     1
 10
0.0
 20
0.0
 30
0.0
  0
VERTEX
  5
44E
  8
DV1_0
  6
CONTINUOUS
 62
     7
 10
34.4758340884
 20
30.7869749649
 30
0.0
  0
VERTEX
  5
44F
  8
DV1_0
  6
CONTINUOUS
 62
     7
 10
34.4708125278
 20
30.7870015589
 30
0.0
  0
VERTEX
  5
450
  8
DV1_0
  6
CONTINUOUS
 62
     7
 10
34.4657675822
 20
30.7870822297
 30
0.0
  0
VERTEX
  5
451
  8
DV1_0
  6
CONTINUOUS
 62
     7
 10
34.4607017198
 20
30.7872183103
 30
0.0
  0
VERTEX
  5
452
  8
DV1_0
  6
CONTINUOUS
 62
     7
 10
34.4556174084
 20
30.7874111339
 30
0.0
  0
VERTEX
  5
453
  8
DV1_0
  6
CONTINUOUS
 62
     7
 10
34.4505171159
 20
30.7876620334
 30
0.0
  0
VERTEX
  5
454
  8
DV1_0
  6
CONTINUOUS
 62
     7
 10
34.4454033103
 20
30.7879723421
 30
0.0
  0
VERTEX
  5
455
  8
DV1_0
  6
CONTINUOUS
 62
     7
 10
34.4402784594
 20
30.7883433929
 30
0.0
  0
VERTEX
  5
456
  8
DV1_0
  6
CONTINUOUS
 62
     7
 10
34.4351450312
 20
30.7887765189
 30
0.0
  0
VERTEX
  5
457
  8
DV1_0
  6
CONTINUOUS
 62
     7
 10
34.4300054937
 20
30.7892730532
 30
0.0
  0
VERTEX
  5
458
  8
DV1_0
  6
CONTINUOUS
 62
     7
 10
34.4248623147
 20
30.789834329
 30
0.0
  0
VERTEX
  5
459
  8
DV1_0
  6
CONTINUOUS
 62
     7
 10
34.4197179621
 20
30.7904616792
 30
0.0
  0
VERTEX
  5
45A
  8
DV1_0
  6
CONTINUOUS
 62
     7
 10
34.4145749039
 20
30.791156437
 30
0.0
  0
VERTEX
  5
45B
  8
DV1_0
  6
CONTINUOUS
 62
     7
 10
34.4094356081
 20
30.7919199354
 30
0.0
  0
VERTEX
  5
45C
  8
DV1_0
  6
CONTINUOUS
 62
     7
 10
34.4043025425
 20
30.7927535076
 30
0.0
  0
VERTEX
  5
45D
  8
DV1_0
  6
CONTINUOUS
 62
     7
 10
34.399178175
 20
30.7936584865
 30
0.0
  0
VERTEX
  5
45E
  8
DV1_0
  6
CONTINUOUS
 62
     7
 10
34.3940649736
 20
30.7946362053
 30
0.0
  0
VERTEX
  5
45F
  8
DV1_0
  6
CONTINUOUS
 62
     7
 10
34.3889654062
 20
30.7956879971
 30
0.0
  0
VERTEX
  5
460
  8
DV1_0
  6
CONTINUOUS
 62
     7
 10
34.3838819407
 20
30.7968151949
 30
0.0
  0
VERTEX
  5
461
  8
DV1_0
  6
CONTINUOUS
 62
     7
 10
34.3788170451
 20
30.7980191318
 30
0.0
  0
VERTEX
  5
462
  8
DV1_0
  6
CONTINUOUS
 62
     7
 10
34.3737731872
 20
30.7993011409
 30
0.0
  0
VERTEX
  5
463
  8
DV1_0
  6
CONTINUOUS
 62
     7
 10
34.368752835
 20
30.8006625553
 30
0.0
  0
VERTEX
  5
464
  8
DV1_0
  6
CONTINUOUS
 62
     7
 10
34.3637584564
 20
30.802104708
 30
0.0
  0
VERTEX
  5
465
  8
DV1_0
  6
CONTINUOUS
 62
     7
 10
34.3587925194
 20
30.8036289322
 30
0.0
  0
VERTEX
  5
466
  8
DV1_0
  6
CONTINUOUS
 62
     7
 10
34.3538574918
 20
30.8052365609
 30
0.0
  0
VERTEX
  5
467
  8
DV1_0
  6
CONTINUOUS
 62
     7
 10
34.3489558416
 20
30.8069289271
 30
0.0
  0
VERTEX
  5
468
  8
DV1_0
  6
CONTINUOUS
 62
     7
 10
34.3440900367
 20
30.8087073641
 30
0.0
  0
VERTEX
  5
469
  8
DV1_0
  6
CONTINUOUS
 62
     7
 10
34.3392635823
 20
30.8105743025
 30
0.0
  0
VERTEX
  5
46A
  8
DV1_0
  6
CONTINUOUS
 62
     7
 10
34.3344816681
 20
30.8125300883
 30
0.0
  0
VERTEX
  5
46B
  8
DV1_0
  6
CONTINUOUS
 62
     7
 10
34.3297492891
 20
30.814572927
 30
0.0
  0
VERTEX
  5
46C
  8
DV1_0
  6
CONTINUOUS
 62
     7
 10
34.32507144
 20
30.8167010243
 30
0.0
  0
VERTEX
  5
46D
  8
DV1_0
  6
CONTINUOUS
 62
     7
 10
34.3204531158
 20
30.8189125858
 30
0.0
  0
VERTEX
  5
46E
  8
DV1_0
  6
CONTINUOUS
 62
     7
 10
34.3158993112
 20
30.8212058173
 30
0.0
  0
VERTEX
  5
46F
  8
DV1_0
  6
CONTINUOUS
 62
     7
 10
34.3114150212
 20
30.8235789242
 30
0.0
  0
VERTEX
  5
470
  8
DV1_0
  6
CONTINUOUS
 62
     7
 10
34.3070052405
 20
30.8260301123
 30
0.0
  0
VERTEX
  5
471
  8
DV1_0
  6
CONTINUOUS
 62
     7
 10
34.3026749641
 20
30.8285575872
 30
0.0
  0
VERTEX
  5
472
  8
DV1_0
  6
CONTINUOUS
 62
     7
 10
34.2984291868
 20
30.8311595546
 30
0.0
  0
VERTEX
  5
473
  8
DV1_0
  6
CONTINUOUS
 62
     7
 10
34.2942729034
 20
30.83383422
 30
0.0
  0
VERTEX
  5
474
  8
DV1_0
  6
CONTINUOUS
 62
     7
 10
34.2902111088
 20
30.8365797891
 30
0.0
  0
VERTEX
  5
475
  8
DV1_0
  6
CONTINUOUS
 62
     7
 10
34.2862487979
 20
30.8393944676
 30
0.0
  0
VERTEX
  5
476
  8
DV1_0
  6
CONTINUOUS
 62
     7
 10
34.2823859074
 20
30.8422789916
 30
0.0
  0
VERTEX
  5
477
  8
DV1_0
  6
CONTINUOUS
 62
     7
 10
34.2786202233
 20
30.8452328746
 30
0.0
  0
VERTEX
  5
478
  8
DV1_0
  6
CONTINUOUS
 62
     7
 10
34.2749535142
 20
30.8482524877
 30
0.0
  0
VERTEX
  5
479
  8
DV1_0
  6
CONTINUOUS
 62
     7
 10
34.2713875488
 20
30.8513342023
 30
0.0
  0
VERTEX
  5
47A
  8
DV1_0
  6
CONTINUOUS
 62
     7
 10
34.2679240956
 20
30.8544743897
 30
0.0
  0
VERTEX
  5
47B
  8
DV1_0
  6
CONTINUOUS
 62
     7
 10
34.2645649232
 20
30.857669421
 30
0.0
  0
VERTEX
  5
47C
  8
DV1_0
  6
CONTINUOUS
 62
     7
 10
34.2613118003
 20
30.8609156677
 30
0.0
  0
VERTEX
  5
47D
  8
DV1_0
  6
CONTINUOUS
 62
     7
 10
34.2581664954
 20
30.864209501
 30
0.0
  0
VERTEX
  5
47E
  8
DV1_0
  6
CONTINUOUS
 62
     7
 10
34.2551307772
 20
30.8675472921
 30
0.0
  0
VERTEX
  5
47F
  8
DV1_0
  6
CONTINUOUS
 62
     7
 10
34.2522064143
 20
30.8709254124
 30
0.0
  0
VERTEX
  5
480
  8
DV1_0
  6
CONTINUOUS
 62
     7
 10
34.2493951753
 20
30.8743402331
 30
0.0
  0
VERTEX
  5
481
  8
DV1_0
  6
CONTINUOUS
 62
     7
 10
34.2466988287
 20
30.8777881255
 30
0.0
  0
VERTEX
  5
482
  8
DV1_0
  6
CONTINUOUS
 62
     7
 10
34.2441191433
 20
30.8812654609
 30
0.0
  0
VERTEX
  5
483
  8
DV1_0
  6
CONTINUOUS
 62
     7
 10
34.241653125
 20
30.8847724569
 30
0.0
  0
VERTEX
  5
484
  8
DV1_0
  6
CONTINUOUS
 62
     7
 10
34.239295862
 20
30.8883097104
 30
0.0
  0
VERTEX
  5
485
  8
DV1_0
  6
CONTINUOUS
 62
     7
 10
34.237046246
 20
30.8918741623
 30
0.0
  0
VERTEX
  5
486
  8
DV1_0
  6
CONTINUOUS
 62
     7
 10
34.2349031688
 20
30.8954627531
 30
0.0
  0
VERTEX
  5
487
  8
DV1_0
  6
CONTINUOUS
 62
     7
 10
34.232865522
 20
30.8990724234
 30
0.0
  0
VERTEX
  5
488
  8
DV1_0
  6
CONTINUOUS
 62
     7
 10
34.2309321975
 20
30.902700114
 30
0.0
  0
VERTEX
  5
489
  8
DV1_0
  6
CONTINUOUS
 62
     7
 10
34.2291020869
 20
30.9063427655
 30
0.0
  0
VERTEX
  5
48A
  8
DV1_0
  6
CONTINUOUS
 62
     7
 10
34.227374082
 20
30.9099973185
 30
0.0
  0
VERTEX
  5
48B
  8
DV1_0
  6
CONTINUOUS
 62
     7
 10
34.2257470746
 20
30.9136607137
 30
0.0
  0
VERTEX
  5
48C
  8
DV1_0
  6
CONTINUOUS
 62
     7
 10
34.2242199563
 20
30.9173298917
 30
0.0
  0
VERTEX
  5
48D
  8
DV1_0
  6
CONTINUOUS
 62
     7
 10
34.222791619
 20
30.9210017933
 30
0.0
  0
VERTEX
  5
48E
  8
DV1_0
  6
CONTINUOUS
 62
     7
 10
34.2214609543
 20
30.9246733589
 30
0.0
  0
VERTEX
  5
48F
  8
DV1_0
  6
CONTINUOUS
 62
     7
 10
34.220226854
 20
30.9283415293
 30
0.0
  0
VERTEX
  5
490
  8
DV1_0
  6
CONTINUOUS
 62
     7
 10
34.2190852767
 20
30.9320076958
 30
0.0
  0
VERTEX
  5
491
  8
DV1_0
  6
CONTINUOUS
 62
     7
 10
34.2180318279
 20
30.9356750482
 30
0.0
  0
VERTEX
  5
492
  8
DV1_0
  6
CONTINUOUS
 62
     7
 10
34.2170648699
 20
30.939343225
 30
0.0
  0
VERTEX
  5
493
  8
DV1_0
  6
CONTINUOUS
 62
     7
 10
34.2161827648
 20
30.9430118649
 30
0.0
  0
VERTEX
  5
494
  8
DV1_0
  6
CONTINUOUS
 62
     7
 10
34.2153838749
 20
30.9466806063
 30
0.0
  0
VERTEX
  5
495
  8
DV1_0
  6
CONTINUOUS
 62
     7
 10
34.2146665625
 20
30.9503490878
 30
0.0
  0
VERTEX
  5
496
  8
DV1_0
  6
CONTINUOUS
 62
     7
 10
34.2140291898
 20
30.9540169479
 30
0.0
  0
VERTEX
  5
497
  8
DV1_0
  6
CONTINUOUS
 62
     7
 10
34.213470119
 20
30.9576838253
 30
0.0
  0
VERTEX
  5
498
  8
DV1_0
  6
CONTINUOUS
 62
     7
 10
34.2129877123
 20
30.9613493584
 30
0.0
  0
VERTEX
  5
499
  8
DV1_0
  6
CONTINUOUS
 62
     7
 10
34.212580332
 20
30.9650131858
 30
0.0
  0
VERTEX
  5
49A
  8
DV1_0
  6
CONTINUOUS
 62
     7
 10
34.2122463403
 20
30.968674946
 30
0.0
  0
VERTEX
  5
49B
  8
DV1_0
  6
CONTINUOUS
 62
     7
 10
34.2119840994
 20
30.9723342776
 30
0.0
  0
VERTEX
  5
49C
  8
DV1_0
  6
CONTINUOUS
 62
     7
 10
34.2117919716
 20
30.9759908192
 30
0.0
  0
VERTEX
  5
49D
  8
DV1_0
  6
CONTINUOUS
 62
     7
 10
34.2116673671
 20
30.9796384048
 30
0.0
  0
VERTEX
  5
49E
  8
DV1_0
  6
CONTINUOUS
 62
     7
 10
34.2116081203
 20
30.98327126
 30
0.0
  0
VERTEX
  5
49F
  8
DV1_0
  6
CONTINUOUS
 62
     7
 10
34.2116132297
 20
30.9868896106
 30
0.0
  0
VERTEX
  5
4A0
  8
DV1_0
  6
CONTINUOUS
 62
     7
 10
34.2116816936
 20
30.9904936823
 30
0.0
  0
VERTEX
  5
4A1
  8
DV1_0
  6
CONTINUOUS
 62
     7
 10
34.2118125105
 20
30.9940837009
 30
0.0
  0
VERTEX
  5
4A2
  8
DV1_0
  6
CONTINUOUS
 62
     7
 10
34.2120046788
 20
30.997659892
 30
0.0
  0
VERTEX
  5
4A3
  8
DV1_0
  6
CONTINUOUS
 62
     7
 10
34.2122571969
 20
31.0012224813
 30
0.0
  0
VERTEX
  5
4A4
  8
DV1_0
  6
CONTINUOUS
 62
     7
 10
34.2125690634
 20
31.0047716948
 30
0.0
  0
VERTEX
  5
4A5
  8
DV1_0
  6
CONTINUOUS
 62
     7
 10
34.2129392765
 20
31.008307758
 30
0.0
  0
VERTEX
  5
4A6
  8
DV1_0
  6
CONTINUOUS
 62
     7
 10
34.2133668348
 20
31.0118308967
 30
0.0
  0
VERTEX
  5
4A7
  8
DV1_0
  6
CONTINUOUS
 62
     7
 10
34.2138507366
 20
31.0153413367
 30
0.0
  0
VERTEX
  5
4A8
  8
DV1_0
  6
CONTINUOUS
 62
     7
 10
34.2143899805
 20
31.0188393036
 30
0.0
  0
VERTEX
  5
4A9
  8
DV1_0
  6
CONTINUOUS
 62
     7
 10
34.2149835647
 20
31.0223250232
 30
0.0
  0
VERTEX
  5
4AA
  8
DV1_0
  6
CONTINUOUS
 62
     7
 10
34.2156304878
 20
31.0257987213
 30
0.0
  0
VERTEX
  5
4AB
  8
DV1_0
  6
CONTINUOUS
 62
     7
 10
34.2163297482
 20
31.0292606236
 30
0.0
  0
VERTEX
  5
4AC
  8
DV1_0
  6
CONTINUOUS
 62
     7
 10
34.2170803443
 20
31.0327109558
 30
0.0
  0
VERTEX
  5
4AD
  8
DV1_0
  6
CONTINUOUS
 62
     7
 10
34.2178812745
 20
31.0361499436
 30
0.0
  0
VERTEX
  5
4AE
  8
DV1_0
  6
CONTINUOUS
 62
     7
 10
34.2187315373
 20
31.0395778129
 30
0.0
  0
VERTEX
  5
4AF
  8
DV1_0
  6
CONTINUOUS
 62
     7
 10
34.2196301311
 20
31.0429947892
 30
0.0
  0
VERTEX
  5
4B0
  8
DV1_0
  6
CONTINUOUS
 62
     7
 10
34.2205760543
 20
31.0464010984
 30
0.0
  0
VERTEX
  5
4B1
  8
DV1_0
  6
CONTINUOUS
 62
     7
 10
34.2215683053
 20
31.0497969662
 30
0.0
  0
VERTEX
  5
4B2
  8
DV1_0
  6
CONTINUOUS
 62
     7
 10
34.2226058826
 20
31.0531826183
 30
0.0
  0
VERTEX
  5
4B3
  8
DV1_0
  6
CONTINUOUS
 62
     7
 10
34.2236877847
 20
31.0565582805
 30
0.0
  0
VERTEX
  5
4B4
  8
DV1_0
  6
CONTINUOUS
 62
     7
 10
34.2248130098
 20
31.0599241785
 30
0.0
  0
VERTEX
  5
4B5
  8
DV1_0
  6
CONTINUOUS
 62
     7
 10
34.2259805566
 20
31.063280538
 30
0.0
  0
VERTEX
  5
4B6
  8
DV1_0
  6
CONTINUOUS
 62
     7
 10
34.2271894233
 20
31.0666275848
 30
0.0
  0
SEQEND
  5
7B3
  8
DV1_0
  6
CONTINUOUS
 62
     7
  0
LINE
  5
F2
  8
DV1_0
  6
CONTINUOUS
 62
     7
 10
35.6000247479
 20
30.7869749649
 30
0.0
 11
34.8376212673
 21
30.7869749649
 31
0.0
  0
LINE
  5
F3
  8
DV1_0
  6
CONTINUOUS
 62
     7
 10
34.8376212673
 20
30.7869749649
 30
0.0
 11
34.4793241882
 21
30.7869749649
 31
0.0
  0
LINE
  5
F4
  8
DV1_0
  6
CONTINUOUS
 62
     7
 10
52.6699680695
 20
30.7869749649
 30
0.0
 11
53.492901079
 21
30.7869749649
 31
0.0
  0
LINE
  5
F5
  8
DV1_0
  6
CONTINUOUS
 62
     7
 10
51.5474131391
 20
30.7869749649
 30
0.0
 11
44.6954560094
 21
30.7869749649
 31
0.0
  0
LINE
  5
F6
  8
DV1_0
  6
CONTINUOUS
 62
     7
 10
52.9218841007
 20
33.3684728684
 30
0.0
 11
52.9218841007
 21
31.1069749649
 31
0.0
  0
LINE
  5
F7
  8
DV1_0
  6
CONTINUOUS
 62
     7
 10
52.9218841007
 20
31.1069749649
 30
0.0
 11
52.9186127346
 21
31.0666275848
 31
0.0
  0
LINE
  5
F8
  8
DV1_0
  6
CONTINUOUS
 62
     7
 10
51.8647669561
 20
31.0666275848
 30
0.0
 11
51.8654842615
 21
31.1069749649
 31
0.0
  0
LINE
  5
F9
  8
DV1_0
  6
CONTINUOUS
 62
     7
 10
51.8654842615
 20
31.1069749649
 30
0.0
 11
51.8654842615
 21
32.8790624932
 31
0.0
  0
POLYLINE
  5
FA
  8
DV1_0
  6
CONTINUOUS
 62
     7
 66
     1
 10
0.0
 20
0.0
 30
0.0
  0
VERTEX
  5
4B7
  8
DV1_0
  6
CONTINUOUS
 62
     7
 10
52.9186127346
 20
31.0666275848
 30
0.0
  0
VERTEX
  5
4B8
  8
DV1_0
  6
CONTINUOUS
 62
     7
 10
52.9200312155
 20
31.0626843578
 30
0.0
  0
VERTEX
  5
4B9
  8
DV1_0
  6
CONTINUOUS
 62
     7
 10
52.9213930282
 20
31.0587202329
 30
0.0
  0
VERTEX
  5
4BA
  8
DV1_0
  6
CONTINUOUS
 62
     7
 10
52.9226964004
 20
31.0547356675
 30
0.0
  0
VERTEX
  5
4BB
  8
DV1_0
  6
CONTINUOUS
 62
     7
 10
52.9239395599
 20
31.050731119
 30
0.0
  0
VERTEX
  5
4BC
  8
DV1_0
  6
CONTINUOUS
 62
     7
 10
52.9251207348
 20
31.0467070451
 30
0.0
  0
VERTEX
  5
4BD
  8
DV1_0
  6
CONTINUOUS
 62
     7
 10
52.9262381526
 20
31.0426639031
 30
0.0
  0
VERTEX
  5
4BE
  8
DV1_0
  6
CONTINUOUS
 62
     7
 10
52.9272900415
 20
31.0386021506
 30
0.0
  0
VERTEX
  5
4BF
  8
DV1_0
  6
CONTINUOUS
 62
     7
 10
52.928274629
 20
31.0345222452
 30
0.0
  0
VERTEX
  5
4C0
  8
DV1_0
  6
CONTINUOUS
 62
     7
 10
52.9291901432
 20
31.0304246442
 30
0.0
  0
VERTEX
  5
4C1
  8
DV1_0
  6
CONTINUOUS
 62
     7
 10
52.9300348118
 20
31.0263098051
 30
0.0
  0
VERTEX
  5
4C2
  8
DV1_0
  6
CONTINUOUS
 62
     7
 10
52.9308068627
 20
31.0221781856
 30
0.0
  0
VERTEX
  5
4C3
  8
DV1_0
  6
CONTINUOUS
 62
     7
 10
52.9315045237
 20
31.018030243
 30
0.0
  0
VERTEX
  5
4C4
  8
DV1_0
  6
CONTINUOUS
 62
     7
 10
52.9321260226
 20
31.0138664349
 30
0.0
  0
VERTEX
  5
4C5
  8
DV1_0
  6
CONTINUOUS
 62
     7
 10
52.9326695874
 20
31.0096872188
 30
0.0
  0
VERTEX
  5
4C6
  8
DV1_0
  6
CONTINUOUS
 62
     7
 10
52.9331334458
 20
31.0054930521
 30
0.0
  0
VERTEX
  5
4C7
  8
DV1_0
  6
CONTINUOUS
 62
     7
 10
52.9335158257
 20
31.0012843924
 30
0.0
  0
VERTEX
  5
4C8
  8
DV1_0
  6
CONTINUOUS
 62
     7
 10
52.9338149549
 20
30.9970616971
 30
0.0
  0
VERTEX
  5
4C9
  8
DV1_0
  6
CONTINUOUS
 62
     7
 10
52.9340290613
 20
30.9928254238
 30
0.0
  0
VERTEX
  5
4CA
  8
DV1_0
  6
CONTINUOUS
 62
     7
 10
52.9341563726
 20
30.98857603
 30
0.0
  0
VERTEX
  5
4CB
  8
DV1_0
  6
CONTINUOUS
 62
     7
 10
52.9341951168
 20
30.9843139731
 30
0.0
  0
VERTEX
  5
4CC
  8
DV1_0
  6
CONTINUOUS
 62
     7
 10
52.9341435217
 20
30.9800397106
 30
0.0
  0
VERTEX
  5
4CD
  8
DV1_0
  6
CONTINUOUS
 62
     7
 10
52.9339998151
 20
30.9757537001
 30
0.0
  0
VERTEX
  5
4CE
  8
DV1_0
  6
CONTINUOUS
 62
     7
 10
52.9337620048
 20
30.9714547844
 30
0.0
  0
VERTEX
  5
4CF
  8
DV1_0
  6
CONTINUOUS
 62
     7
 10
52.9334272069
 20
30.9671427834
 30
0.0
  0
VERTEX
  5
4D0
  8
DV1_0
  6
CONTINUOUS
 62
     7
 10
52.932992312
 20
30.9628196202
 30
0.0
  0
VERTEX
  5
4D1
  8
DV1_0
  6
CONTINUOUS
 62
     7
 10
52.9324542105
 20
30.9584872177
 30
0.0
  0
VERTEX
  5
4D2
  8
DV1_0
  6
CONTINUOUS
 62
     7
 10
52.9318097928
 20
30.9541474991
 30
0.0
  0
VERTEX
  5
4D3
  8
DV1_0
  6
CONTINUOUS
 62
     7
 10
52.9310559495
 20
30.9498023873
 30
0.0
  0
VERTEX
  5
4D4
  8
DV1_0
  6
CONTINUOUS
 62
     7
 10
52.930189571
 20
30.9454538054
 30
0.0
  0
VERTEX
  5
4D5
  8
DV1_0
  6
CONTINUOUS
 62
     7
 10
52.9292075478
 20
30.9411036763
 30
0.0
  0
VERTEX
  5
4D6
  8
DV1_0
  6
CONTINUOUS
 62
     7
 10
52.9281067704
 20
30.9367539232
 30
0.0
  0
VERTEX
  5
4D7
  8
DV1_0
  6
CONTINUOUS
 62
     7
 10
52.9268841293
 20
30.932406469
 30
0.0
  0
VERTEX
  5
4D8
  8
DV1_0
  6
CONTINUOUS
 62
     7
 10
52.9255365149
 20
30.9280632367
 30
0.0
  0
VERTEX
  5
4D9
  8
DV1_0
  6
CONTINUOUS
 62
     7
 10
52.9240608177
 20
30.9237261494
 30
0.0
  0
VERTEX
  5
4DA
  8
DV1_0
  6
CONTINUOUS
 62
     7
 10
52.9224539281
 20
30.9193971302
 30
0.0
  0
VERTEX
  5
4DB
  8
DV1_0
  6
CONTINUOUS
 62
     7
 10
52.9207127367
 20
30.915078102
 30
0.0
  0
VERTEX
  5
4DC
  8
DV1_0
  6
CONTINUOUS
 62
     7
 10
52.918834134
 20
30.9107709878
 30
0.0
  0
VERTEX
  5
4DD
  8
DV1_0
  6
CONTINUOUS
 62
     7
 10
52.9168150103
 20
30.9064777108
 30
0.0
  0
VERTEX
  5
4DE
  8
DV1_0
  6
CONTINUOUS
 62
     7
 10
52.9146522563
 20
30.9022001938
 30
0.0
  0
VERTEX
  5
4DF
  8
DV1_0
  6
CONTINUOUS
 62
     7
 10
52.9123427622
 20
30.89794036
 30
0.0
  0
VERTEX
  5
4E0
  8
DV1_0
  6
CONTINUOUS
 62
     7
 10
52.9098834187
 20
30.8937001323
 30
0.0
  0
VERTEX
  5
4E1
  8
DV1_0
  6
CONTINUOUS
 62
     7
 10
52.9072711163
 20
30.8894814339
 30
0.0
  0
VERTEX
  5
4E2
  8
DV1_0
  6
CONTINUOUS
 62
     7
 10
52.9045027453
 20
30.8852861876
 30
0.0
  0
VERTEX
  5
4E3
  8
DV1_0
  6
CONTINUOUS
 62
     7
 10
52.9015751962
 20
30.8811163166
 30
0.0
  0
VERTEX
  5
4E4
  8
DV1_0
  6
CONTINUOUS
 62
     7
 10
52.8984928977
 20
30.8769874112
 30
0.0
  0
VERTEX
  5
4E5
  8
DV1_0
  6
CONTINUOUS
 62
     7
 10
52.8952618688
 20
30.8729155081
 30
0.0
  0
VERTEX
  5
4E6
  8
DV1_0
  6
CONTINUOUS
 62
     7
 10
52.891881386
 20
30.8689032004
 30
0.0
  0
VERTEX
  5
4E7
  8
DV1_0
  6
CONTINUOUS
 62
     7
 10
52.8883507257
 20
30.8649530809
 30
0.0
  0
VERTEX
  5
4E8
  8
DV1_0
  6
CONTINUOUS
 62
     7
 10
52.8846691642
 20
30.8610677424
 30
0.0
  0
VERTEX
  5
4E9
  8
DV1_0
  6
CONTINUOUS
 62
     7
 10
52.880835978
 20
30.857249778
 30
0.0
  0
VERTEX
  5
4EA
  8
DV1_0
  6
CONTINUOUS
 62
     7
 10
52.8768504434
 20
30.8535017803
 30
0.0
  0
VERTEX
  5
4EB
  8
DV1_0
  6
CONTINUOUS
 62
     7
 10
52.8727118369
 20
30.8498263424
 30
0.0
  0
VERTEX
  5
4EC
  8
DV1_0
  6
CONTINUOUS
 62
     7
 10
52.8684194347
 20
30.8462260571
 30
0.0
  0
VERTEX
  5
4ED
  8
DV1_0
  6
CONTINUOUS
 62
     7
 10
52.8639725134
 20
30.8427035173
 30
0.0
  0
VERTEX
  5
4EE
  8
DV1_0
  6
CONTINUOUS
 62
     7
 10
52.8593703492
 20
30.8392613159
 30
0.0
  0
VERTEX
  5
4EF
  8
DV1_0
  6
CONTINUOUS
 62
     7
 10
52.8546312462
 20
30.8359156555
 30
0.0
  0
VERTEX
  5
4F0
  8
DV1_0
  6
CONTINUOUS
 62
     7
 10
52.8497765225
 20
30.8326812273
 30
0.0
  0
VERTEX
  5
4F1
  8
DV1_0
  6
CONTINUOUS
 62
     7
 10
52.8448099759
 20
30.8295583573
 30
0.0
  0
VERTEX
  5
4F2
  8
DV1_0
  6
CONTINUOUS
 62
     7
 10
52.8397354042
 20
30.8265473718
 30
0.0
  0
VERTEX
  5
4F3
  8
DV1_0
  6
CONTINUOUS
 62
     7
 10
52.8345566052
 20
30.8236485966
 30
0.0
  0
VERTEX
  5
4F4
  8
DV1_0
  6
CONTINUOUS
 62
     7
 10
52.8292773768
 20
30.8208623578
 30
0.0
  0
VERTEX
  5
4F5
  8
DV1_0
  6
CONTINUOUS
 62
     7
 10
52.8239015167
 20
30.8181889814
 30
0.0
  0
VERTEX
  5
4F6
  8
DV1_0
  6
CONTINUOUS
 62
     7
 10
52.8184328227
 20
30.8156287936
 30
0.0
  0
VERTEX
  5
4F7
  8
DV1_0
  6
CONTINUOUS
 62
     7
 10
52.8128750927
 20
30.8131821204
 30
0.0
  0
VERTEX
  5
4F8
  8
DV1_0
  6
CONTINUOUS
 62
     7
 10
52.8072321245
 20
30.8108492877
 30
0.0
  0
VERTEX
  5
4F9
  8
DV1_0
  6
CONTINUOUS
 62
     7
 10
52.8015077158
 20
30.8086306216
 30
0.0
  0
VERTEX
  5
4FA
  8
DV1_0
  6
CONTINUOUS
 62
     7
 10
52.7957231815
 20
30.8065310176
 30
0.0
  0
VERTEX
  5
4FB
  8
DV1_0
  6
CONTINUOUS
 62
     7
 10
52.7898993783
 20
30.8045535606
 30
0.0
  0
VERTEX
  5
4FC
  8
DV1_0
  6
CONTINUOUS
 62
     7
 10
52.7840394176
 20
30.8026958606
 30
0.0
  0
VERTEX
  5
4FD
  8
DV1_0
  6
CONTINUOUS
 62
     7
 10
52.7781464103
 20
30.8009555279
 30
0.0
  0
VERTEX
  5
4FE
  8
DV1_0
  6
CONTINUOUS
 62
     7
 10
52.7722234679
 20
30.7993301728
 30
0.0
  0
VERTEX
  5
4FF
  8
DV1_0
  6
CONTINUOUS
 62
     7
 10
52.7662737013
 20
30.7978174053
 30
0.0
  0
VERTEX
  5
500
  8
DV1_0
  6
CONTINUOUS
 62
     7
 10
52.7603002218
 20
30.7964148356
 30
0.0
  0
VERTEX
  5
501
  8
DV1_0
  6
CONTINUOUS
 62
     7
 10
52.7543061405
 20
30.7951200741
 30
0.0
  0
VERTEX
  5
502
  8
DV1_0
  6
CONTINUOUS
 62
     7
 10
52.7482945686
 20
30.7939307308
 30
0.0
  0
VERTEX
  5
503
  8
DV1_0
  6
CONTINUOUS
 62
     7
 10
52.7422686172
 20
30.7928444159
 30
0.0
  0
VERTEX
  5
504
  8
DV1_0
  6
CONTINUOUS
 62
     7
 10
52.7362313976
 20
30.7918587396
 30
0.0
  0
VERTEX
  5
505
  8
DV1_0
  6
CONTINUOUS
 62
     7
 10
52.7301860209
 20
30.7909713122
 30
0.0
  0
VERTEX
  5
506
  8
DV1_0
  6
CONTINUOUS
 62
     7
 10
52.7241355982
 20
30.7901797438
 30
0.0
  0
VERTEX
  5
507
  8
DV1_0
  6
CONTINUOUS
 62
     7
 10
52.7180832408
 20
30.7894816446
 30
0.0
  0
VERTEX
  5
508
  8
DV1_0
  6
CONTINUOUS
 62
     7
 10
52.7120320597
 20
30.7888746247
 30
0.0
  0
VERTEX
  5
509
  8
DV1_0
  6
CONTINUOUS
 62
     7
 10
52.7059851663
 20
30.7883562945
 30
0.0
  0
VERTEX
  5
50A
  8
DV1_0
  6
CONTINUOUS
 62
     7
 10
52.6999456715
 20
30.787924264
 30
0.0
  0
VERTEX
  5
50B
  8
DV1_0
  6
CONTINUOUS
 62
     7
 10
52.6939166867
 20
30.7875761435
 30
0.0
  0
VERTEX
  5
50C
  8
DV1_0
  6
CONTINUOUS
 62
     7
 10
52.6879013229
 20
30.7873095432
 30
0.0
  0
VERTEX
  5
50D
  8
DV1_0
  6
CONTINUOUS
 62
     7
 10
52.6819026913
 20
30.7871220732
 30
0.0
  0
VERTEX
  5
50E
  8
DV1_0
  6
CONTINUOUS
 62
     7
 10
52.6759239031
 20
30.7870113437
 30
0.0
  0
VERTEX
  5
50F
  8
DV1_0
  6
CONTINUOUS
 62
     7
 10
52.6699680695
 20
30.7869749649
 30
0.0
  0
SEQEND
  5
7B2
  8
DV1_0
  6
CONTINUOUS
 62
     7
  0
POLYLINE
  5
FB
  8
DV1_0
  6
CONTINUOUS
 62
     7
 66
     1
 10
0.0
 20
0.0
 30
0.0
  0
VERTEX
  5
510
  8
DV1_0
  6
CONTINUOUS
 62
     7
 10
51.5474131391
 20
30.7869749649
 30
0.0
  0
VERTEX
  5
511
  8
DV1_0
  6
CONTINUOUS
 62
     7
 10
51.5490507603
 20
30.7870119332
 30
0.0
  0
VERTEX
  5
512
  8
DV1_0
  6
CONTINUOUS
 62
     7
 10
51.5507615459
 20
30.7871243323
 30
0.0
  0
VERTEX
  5
513
  8
DV1_0
  6
CONTINUOUS
 62
     7
 10
51.5525466567
 20
30.7873144034
 30
0.0
  0
VERTEX
  5
514
  8
DV1_0
  6
CONTINUOUS
 62
     7
 10
51.5544072532
 20
30.7875843877
 30
0.0
  0
VERTEX
  5
515
  8
DV1_0
  6
CONTINUOUS
 62
     7
 10
51.5563444962
 20
30.7879365266
 30
0.0
  0
VERTEX
  5
516
  8
DV1_0
  6
CONTINUOUS
 62
     7
 10
51.5583595464
 20
30.7883730612
 30
0.0
  0
VERTEX
  5
517
  8
DV1_0
  6
CONTINUOUS
 62
     7
 10
51.5604535645
 20
30.7888962329
 30
0.0
  0
VERTEX
  5
518
  8
DV1_0
  6
CONTINUOUS
 62
     7
 10
51.5626277113
 20
30.7895082829
 30
0.0
  0
VERTEX
  5
519
  8
DV1_0
  6
CONTINUOUS
 62
     7
 10
51.5648831473
 20
30.7902114523
 30
0.0
  0
VERTEX
  5
51A
  8
DV1_0
  6
CONTINUOUS
 62
     7
 10
51.5672210334
 20
30.7910079826
 30
0.0
  0
VERTEX
  5
51B
  8
DV1_0
  6
CONTINUOUS
 62
     7
 10
51.5696425302
 20
30.7919001149
 30
0.0
  0
VERTEX
  5
51C
  8
DV1_0
  6
CONTINUOUS
 62
     7
 10
51.5721487984
 20
30.7928900905
 30
0.0
  0
VERTEX
  5
51D
  8
DV1_0
  6
CONTINUOUS
 62
     7
 10
51.5747409988
 20
30.7939801507
 30
0.0
  0
VERTEX
  5
51E
  8
DV1_0
  6
CONTINUOUS
 62
     7
 10
51.5774202919
 20
30.7951725366
 30
0.0
  0
VERTEX
  5
51F
  8
DV1_0
  6
CONTINUOUS
 62
     7
 10
51.5801878386
 20
30.7964694896
 30
0.0
  0
VERTEX
  5
520
  8
DV1_0
  6
CONTINUOUS
 62
     7
 10
51.5830447996
 20
30.7978732508
 30
0.0
  0
VERTEX
  5
521
  8
DV1_0
  6
CONTINUOUS
 62
     7
 10
51.5859923354
 20
30.7993860617
 30
0.0
  0
VERTEX
  5
522
  8
DV1_0
  6
CONTINUOUS
 62
     7
 10
51.5890316069
 20
30.8010101633
 30
0.0
  0
VERTEX
  5
523
  8
DV1_0
  6
CONTINUOUS
 62
     7
 10
51.5921637748
 20
30.802747797
 30
0.0
  0
VERTEX
  5
524
  8
DV1_0
  6
CONTINUOUS
 62
     7
 10
51.5953899997
 20
30.804601204
 30
0.0
  0
VERTEX
  5
525
  8
DV1_0
  6
CONTINUOUS
 62
     7
 10
51.5987114423
 20
30.8065726256
 30
0.0
  0
VERTEX
  5
526
  8
DV1_0
  6
CONTINUOUS
 62
     7
 10
51.6021292633
 20
30.8086643029
 30
0.0
  0
VERTEX
  5
527
  8
DV1_0
  6
CONTINUOUS
 62
     7
 10
51.6056409191
 20
30.8108772834
 30
0.0
  0
VERTEX
  5
528
  8
DV1_0
  6
CONTINUOUS
 62
     7
 10
51.6092406075
 20
30.8132096707
 30
0.0
  0
VERTEX
  5
529
  8
DV1_0
  6
CONTINUOUS
 62
     7
 10
51.6129246021
 20
30.8156592913
 30
0.0
  0
VERTEX
  5
52A
  8
DV1_0
  6
CONTINUOUS
 62
     7
 10
51.6166891762
 20
30.8182239713
 30
0.0
  0
VERTEX
  5
52B
  8
DV1_0
  6
CONTINUOUS
 62
     7
 10
51.6205306033
 20
30.8209015369
 30
0.0
  0
VERTEX
  5
52C
  8
DV1_0
  6
CONTINUOUS
 62
     7
 10
51.6244451567
 20
30.8236898145
 30
0.0
  0
VERTEX
  5
52D
  8
DV1_0
  6
CONTINUOUS
 62
     7
 10
51.62842911
 20
30.8265866302
 30
0.0
  0
VERTEX
  5
52E
  8
DV1_0
  6
CONTINUOUS
 62
     7
 10
51.6324787365
 20
30.8295898103
 30
0.0
  0
VERTEX
  5
52F
  8
DV1_0
  6
CONTINUOUS
 62
     7
 10
51.6365903096
 20
30.832697181
 30
0.0
  0
VERTEX
  5
530
  8
DV1_0
  6
CONTINUOUS
 62
     7
 10
51.6407601028
 20
30.8359065687
 30
0.0
  0
VERTEX
  5
531
  8
DV1_0
  6
CONTINUOUS
 62
     7
 10
51.6449843895
 20
30.8392157994
 30
0.0
  0
VERTEX
  5
532
  8
DV1_0
  6
CONTINUOUS
 62
     7
 10
51.6492618721
 20
30.8426244194
 30
0.0
  0
VERTEX
  5
533
  8
DV1_0
  6
CONTINUOUS
 62
     7
 10
51.6535897929
 20
30.846129608
 30
0.0
  0
VERTEX
  5
534
  8
DV1_0
  6
CONTINUOUS
 62
     7
 10
51.6579622354
 20
30.8497256416
 30
0.0
  0
VERTEX
  5
535
  8
DV1_0
  6
CONTINUOUS
 62
     7
 10
51.6623732829
 20
30.8534067965
 30
0.0
  0
VERTEX
  5
536
  8
DV1_0
  6
CONTINUOUS
 62
     7
 10
51.6668170189
 20
30.857167349
 30
0.0
  0
VERTEX
  5
537
  8
DV1_0
  6
CONTINUOUS
 62
     7
 10
51.6712875267
 20
30.8610015754
 30
0.0
  0
VERTEX
  5
538
  8
DV1_0
  6
CONTINUOUS
 62
     7
 10
51.6757788897
 20
30.8649037519
 30
0.0
  0
VERTEX
  5
539
  8
DV1_0
  6
CONTINUOUS
 62
     7
 10
51.6802851913
 20
30.8688681549
 30
0.0
  0
VERTEX
  5
53A
  8
DV1_0
  6
CONTINUOUS
 62
     7
 10
51.6848005149
 20
30.8728890608
 30
0.0
  0
VERTEX
  5
53B
  8
DV1_0
  6
CONTINUOUS
 62
     7
 10
51.6893189439
 20
30.8769607457
 30
0.0
  0
VERTEX
  5
53C
  8
DV1_0
  6
CONTINUOUS
 62
     7
 10
51.6938345617
 20
30.881077486
 30
0.0
  0
VERTEX
  5
53D
  8
DV1_0
  6
CONTINUOUS
 62
     7
 10
51.6983399682
 20
30.8852309288
 30
0.0
  0
VERTEX
  5
53E
  8
DV1_0
  6
CONTINUOUS
 62
     7
 10
51.7028307796
 20
30.889414922
 30
0.0
  0
VERTEX
  5
53F
  8
DV1_0
  6
CONTINUOUS
 62
     7
 10
51.7073056037
 20
30.8936270429
 30
0.0
  0
VERTEX
  5
540
  8
DV1_0
  6
CONTINUOUS
 62
     7
 10
51.7117630483
 20
30.8978648688
 30
0.0
  0
VERTEX
  5
541
  8
DV1_0
  6
CONTINUOUS
 62
     7
 10
51.7162017212
 20
30.9021259772
 30
0.0
  0
VERTEX
  5
542
  8
DV1_0
  6
CONTINUOUS
 62
     7
 10
51.7206202303
 20
30.9064079455
 30
0.0
  0
VERTEX
  5
543
  8
DV1_0
  6
CONTINUOUS
 62
     7
 10
51.7250171833
 20
30.910708351
 30
0.0
  0
VERTEX
  5
544
  8
DV1_0
  6
CONTINUOUS
 62
     7
 10
51.7293911882
 20
30.9150247711
 30
0.0
  0
VERTEX
  5
545
  8
DV1_0
  6
CONTINUOUS
 62
     7
 10
51.7337408526
 20
30.9193547832
 30
0.0
  0
VERTEX
  5
546
  8
DV1_0
  6
CONTINUOUS
 62
     7
 10
51.7380647845
 20
30.9236959646
 30
0.0
  0
VERTEX
  5
547
  8
DV1_0
  6
CONTINUOUS
 62
     7
 10
51.7423615916
 20
30.9280458928
 30
0.0
  0
VERTEX
  5
548
  8
DV1_0
  6
CONTINUOUS
 62
     7
 10
51.7466298817
 20
30.9324021452
 30
0.0
  0
VERTEX
  5
549
  8
DV1_0
  6
CONTINUOUS
 62
     7
 10
51.7508682628
 20
30.936762299
 30
0.0
  0
VERTEX
  5
54A
  8
DV1_0
  6
CONTINUOUS
 62
     7
 10
51.7550753425
 20
30.9411239318
 30
0.0
  0
VERTEX
  5
54B
  8
DV1_0
  6
CONTINUOUS
 62
     7
 10
51.7592497287
 20
30.9454846208
 30
0.0
  0
VERTEX
  5
54C
  8
DV1_0
  6
CONTINUOUS
 62
     7
 10
51.7633900293
 20
30.9498419434
 30
0.0
  0
VERTEX
  5
54D
  8
DV1_0
  6
CONTINUOUS
 62
     7
 10
51.7674948519
 20
30.9541934771
 30
0.0
  0
VERTEX
  5
54E
  8
DV1_0
  6
CONTINUOUS
 62
     7
 10
51.7715628046
 20
30.9585367992
 30
0.0
  0
VERTEX
  5
54F
  8
DV1_0
  6
CONTINUOUS
 62
     7
 10
51.775592495
 20
30.9628694871
 30
0.0
  0
VERTEX
  5
550
  8
DV1_0
  6
CONTINUOUS
 62
     7
 10
51.779582531
 20
30.9671891182
 30
0.0
  0
VERTEX
  5
551
  8
DV1_0
  6
CONTINUOUS
 62
     7
 10
51.7835315204
 20
30.9714932698
 30
0.0
  0
VERTEX
  5
552
  8
DV1_0
  6
CONTINUOUS
 62
     7
 10
51.787438071
 20
30.9757795193
 30
0.0
  0
VERTEX
  5
553
  8
DV1_0
  6
CONTINUOUS
 62
     7
 10
51.7913055019
 20
30.9800503468
 30
0.0
  0
VERTEX
  5
554
  8
DV1_0
  6
CONTINUOUS
 62
     7
 10
51.7951381786
 20
30.984309653
 30
0.0
  0
VERTEX
  5
555
  8
DV1_0
  6
CONTINUOUS
 62
     7
 10
51.7989362787
 20
30.9885571466
 30
0.0
  0
VERTEX
  5
556
  8
DV1_0
  6
CONTINUOUS
 62
     7
 10
51.80269998
 20
30.9927925361
 30
0.0
  0
VERTEX
  5
557
  8
DV1_0
  6
CONTINUOUS
 62
     7
 10
51.8064294601
 20
30.9970155303
 30
0.0
  0
VERTEX
  5
558
  8
DV1_0
  6
CONTINUOUS
 62
     7
 10
51.8101248967
 20
31.0012258377
 30
0.0
  0
VERTEX
  5
559
  8
DV1_0
  6
CONTINUOUS
 62
     7
 10
51.8137864676
 20
31.0054231669
 30
0.0
  0
VERTEX
  5
55A
  8
DV1_0
  6
CONTINUOUS
 62
     7
 10
51.8174143503
 20
31.0096072265
 30
0.0
  0
VERTEX
  5
55B
  8
DV1_0
  6
CONTINUOUS
 62
     7
 10
51.8210087226
 20
31.0137777252
 30
0.0
  0
VERTEX
  5
55C
  8
DV1_0
  6
CONTINUOUS
 62
     7
 10
51.8245697621
 20
31.0179343716
 30
0.0
  0
VERTEX
  5
55D
  8
DV1_0
  6
CONTINUOUS
 62
     7
 10
51.8280976465
 20
31.0220768743
 30
0.0
  0
VERTEX
  5
55E
  8
DV1_0
  6
CONTINUOUS
 62
     7
 10
51.8315925535
 20
31.026204942
 30
0.0
  0
VERTEX
  5
55F
  8
DV1_0
  6
CONTINUOUS
 62
     7
 10
51.8350546608
 20
31.0303182831
 30
0.0
  0
VERTEX
  5
560
  8
DV1_0
  6
CONTINUOUS
 62
     7
 10
51.8384841461
 20
31.0344166065
 30
0.0
  0
VERTEX
  5
561
  8
DV1_0
  6
CONTINUOUS
 62
     7
 10
51.841881187
 20
31.0384996206
 30
0.0
  0
VERTEX
  5
562
  8
DV1_0
  6
CONTINUOUS
 62
     7
 10
51.8452459612
 20
31.0425670341
 30
0.0
  0
VERTEX
  5
563
  8
DV1_0
  6
CONTINUOUS
 62
     7
 10
51.8485786464
 20
31.0466185555
 30
0.0
  0
VERTEX
  5
564
  8
DV1_0
  6
CONTINUOUS
 62
     7
 10
51.8518794202
 20
31.0506538937
 30
0.0
  0
VERTEX
  5
565
  8
DV1_0
  6
CONTINUOUS
 62
     7
 10
51.8551484605
 20
31.054672757
 30
0.0
  0
VERTEX
  5
566
  8
DV1_0
  6
CONTINUOUS
 62
     7
 10
51.8583859447
 20
31.0586748543
 30
0.0
  0
VERTEX
  5
567
  8
DV1_0
  6
CONTINUOUS
 62
     7
 10
51.8615920507
 20
31.062659894
 30
0.0
  0
VERTEX
  5
568
  8
DV1_0
  6
CONTINUOUS
 62
     7
 10
51.8647669561
 20
31.0666275848
 30
0.0
  0
SEQEND
  5
7B1
  8
DV1_0
  6
CONTINUOUS
 62
     7
  0
LINE
  5
FC
  8
DV1_0
  6
CONTINUOUS
 62
     7
 10
52.6664779697
 20
30.7869749649
 30
0.0
 11
52.3081808907
 21
30.7869749649
 31
0.0
  0
LINE
  5
FD
  8
DV1_0
  6
CONTINUOUS
 62
     7
 10
52.3081808907
 20
30.7869749649
 30
0.0
 11
51.5460174266
 21
30.7869749649
 31
0.0
  0
LINE
  5
FE
  8
DV1_0
  6
CONTINUOUS
 62
     7
 10
52.6699680695
 20
30.7869749649
 30
0.0
 11
52.6664779697
 21
30.7869749649
 31
0.0
  0
ARC
  5
FF
  8
DV1_0
  6
CONTINUOUS
 62
     7
 10
54.452901079
 20
35.5869749649
 30
0.0
 40
0.3200000000000003
 50
270.0
 51
0.0
  0
ARC
  5
100
  8
DV1_0
  6
CONTINUOUS
 62
     7
 10
32.692901079
 20
35.5869749649
 30
0.0
 40
0.3200000000000003
 50
180.0
 51
270.0
  0
LINE
  5
101
  8
DV1_0
  6
CONTINUOUS
 62
     7
 10
54.772901079
 20
35.5869749649
 30
0.0
 11
54.772901079
 21
36.2269749649
 31
0.0
  0
LINE
  5
102
  8
DV1_0
  6
CONTINUOUS
 62
     7
 10
32.372901079
 20
36.2269749649
 30
0.0
 11
32.372901079
 21
35.5869749649
 31
0.0
  0
ARC
  5
103
  8
DV1_0
  6
CONTINUOUS
 62
     7
 10
53.972901079
 20
35.1069749649
 30
0.0
 40
0.1600000000000002
 50
90.0
 51
180.0
  0
ARC
  5
104
  8
DV1_0
  6
CONTINUOUS
 62
     7
 10
33.172901079
 20
35.1069749649
 30
0.0
 40
0.1600000000000002
 50
0.0
 51
90.0
  0
ARC
  5
105
  8
DV1_0
  6
CONTINUOUS
 62
     7
 10
33.652901079
 20
31.1069749649
 30
0.0
 40
0.3200000000000003
 50
180.0
 51
270.0
  0
LINE
  5
106
  8
DV1_0
  6
CONTINUOUS
 62
     7
 10
33.332901079
 20
35.1069749649
 30
0.0
 11
33.332901079
 21
31.1069749649
 31
0.0
  0
ARC
  5
107
  8
DV1_0
  6
CONTINUOUS
 62
     7
 10
53.492901079
 20
31.1069749649
 30
0.0
 40
0.3199999999999981
 50
270.0
 51
0.0
  0
LINE
  5
108
  8
DV1_0
  6
CONTINUOUS
 62
     7
 10
53.812901079
 20
31.1069749649
 30
0.0
 11
53.812901079
 21
35.1069749649
 31
0.0
  0
LINE
  5
109
  8
DV1_0
  6
CONTINUOUS
 62
     7
 10
53.492901079
 20
37.1869749649
 30
0.0
 11
53.252901079
 21
37.1869749649
 31
0.0
  0
LINE
  5
10A
  8
DV1_0
  6
CONTINUOUS
 62
     7
 10
53.492901079
 20
37.1869749649
 30
0.0
 11
53.492901079
 21
37.5069749649
 31
0.0
  0
LINE
  5
10B
  8
DV1_0
  6
CONTINUOUS
 62
     7
 10
33.652901079
 20
37.5069749649
 30
0.0
 11
33.652901079
 21
37.1869749649
 31
0.0
  0
LINE
  5
10C
  8
DV1_0
  6
CONTINUOUS
 62
     7
 10
33.892901079
 20
37.1869749649
 30
0.0
 11
33.892901079
 21
36.2269749649
 31
0.0
  0
LINE
  5
10D
  8
DV1_0
  6
CONTINUOUS
 62
     7
 10
50.0969216981
 20
28.2269749649
 30
0.0
 11
37.0488804599
 21
28.2269749649
 31
0.0
  0
LINE
  5
10E
  8
DV1_0
  6
CONTINUOUS
 62
     7
 10
51.252901079
 20
30.6269749649
 30
0.0
 11
35.892901079
 21
30.6269749649
 31
0.0
  0
LINE
  5
10F
  8
DV1_0
  6
CONTINUOUS
 62
     7
 10
50.922560017
 20
28.4509749649
 30
0.0
 11
50.932901079
 21
28.4509749649
 31
0.0
  0
LINE
  5
110
  8
DV1_0
  6
CONTINUOUS
 62
     7
 10
47.5854954386
 20
28.4509749649
 30
0.0
 11
46.9099656573
 21
28.4509749649
 31
0.0
  0
LINE
  5
111
  8
DV1_0
  6
CONTINUOUS
 62
     7
 10
40.2358365006
 20
28.4509749649
 30
0.0
 11
39.5603067193
 21
28.4509749649
 31
0.0
  0
LINE
  5
112
  8
DV1_0
  6
CONTINUOUS
 62
     7
 10
36.223242141
 20
28.4509749649
 30
0.0
 11
36.212901079
 21
28.4509749649
 31
0.0
  0
ARC
  5
113
  8
DV1_0
  6
CONTINUOUS
 62
     7
 10
49.2540277278
 20
34.8897649833
 30
0.0
 40
6.651467274325448
 50
255.4720791821
 51
284.5279208179
  0
ARC
  5
114
  8
DV1_0
  6
CONTINUOUS
 62
     7
 10
37.8917744301
 20
34.8897649833
 30
0.0
 40
6.651467274325427
 50
255.4720791821
 51
284.5279208179
  0
POLYLINE
  5
115
  8
DV1_0
  6
CONTINUOUS
 62
     7
 66
     1
 10
0.0
 20
0.0
 30
0.0
  0
VERTEX
  5
569
  8
DV1_0
  6
CONTINUOUS
 62
     7
 10
40.2358365006
 20
28.4509749649
 30
0.0
  0
VERTEX
  5
56A
  8
DV1_0
  6
CONTINUOUS
 62
     7
 10
40.3282159858
 20
28.4398764069
 30
0.0
  0
VERTEX
  5
56B
  8
DV1_0
  6
CONTINUOUS
 62
     7
 10
40.4206028839
 20
28.429028821
 30
0.0
  0
VERTEX
  5
56C
  8
DV1_0
  6
CONTINUOUS
 62
     7
 10
40.5129973136
 20
28.4184362246
 30
0.0
  0
VERTEX
  5
56D
  8
DV1_0
  6
CONTINUOUS
 62
     7
 10
40.6053993937
 20
28.408102635
 30
0.0
  0
VERTEX
  5
56E
  8
DV1_0
  6
CONTINUOUS
 62
     7
 10
40.6978092428
 20
28.3980320694
 30
0.0
  0
VERTEX
  5
56F
  8
DV1_0
  6
CONTINUOUS
 62
     7
 10
40.7902269794
 20
28.3882285453
 30
0.0
  0
VERTEX
  5
570
  8
DV1_0
  6
CONTINUOUS
 62
     7
 10
40.8826527224
 20
28.3786960799
 30
0.0
  0
VERTEX
  5
571
  8
DV1_0
  6
CONTINUOUS
 62
     7
 10
40.9750865904
 20
28.3694386905
 30
0.0
  0
VERTEX
  5
572
  8
DV1_0
  6
CONTINUOUS
 62
     7
 10
41.0675287019
 20
28.3604603944
 30
0.0
  0
VERTEX
  5
573
  8
DV1_0
  6
CONTINUOUS
 62
     7
 10
41.1599791757
 20
28.351765209
 30
0.0
  0
VERTEX
  5
574
  8
DV1_0
  6
CONTINUOUS
 62
     7
 10
41.2524381304
 20
28.3433571516
 30
0.0
  0
VERTEX
  5
575
  8
DV1_0
  6
CONTINUOUS
 62
     7
 10
41.3449056848
 20
28.3352402395
 30
0.0
  0
VERTEX
  5
576
  8
DV1_0
  6
CONTINUOUS
 62
     7
 10
41.4373819574
 20
28.3274184899
 30
0.0
  0
VERTEX
  5
577
  8
DV1_0
  6
CONTINUOUS
 62
     7
 10
41.5298670669
 20
28.3198959203
 30
0.0
  0
VERTEX
  5
578
  8
DV1_0
  6
CONTINUOUS
 62
     7
 10
41.6223611319
 20
28.3126765478
 30
0.0
  0
VERTEX
  5
579
  8
DV1_0
  6
CONTINUOUS
 62
     7
 10
41.7148642712
 20
28.3057643899
 30
0.0
  0
VERTEX
  5
57A
  8
DV1_0
  6
CONTINUOUS
 62
     7
 10
41.8073766034
 20
28.2991634639
 30
0.0
  0
VERTEX
  5
57B
  8
DV1_0
  6
CONTINUOUS
 62
     7
 10
41.8998982471
 20
28.292877787
 30
0.0
  0
VERTEX
  5
57C
  8
DV1_0
  6
CONTINUOUS
 62
     7
 10
41.9924293526
 20
28.2869124435
 30
0.0
  0
VERTEX
  5
57D
  8
DV1_0
  6
CONTINUOUS
 62
     7
 10
42.0849700281
 20
28.2812711
 30
0.0
  0
VERTEX
  5
57E
  8
DV1_0
  6
CONTINUOUS
 62
     7
 10
42.1775203294
 20
28.275955647
 30
0.0
  0
VERTEX
  5
57F
  8
DV1_0
  6
CONTINUOUS
 62
     7
 10
42.2700803125
 20
28.2709679752
 30
0.0
  0
VERTEX
  5
580
  8
DV1_0
  6
CONTINUOUS
 62
     7
 10
42.3626500331
 20
28.2663099751
 30
0.0
  0
VERTEX
  5
581
  8
DV1_0
  6
CONTINUOUS
 62
     7
 10
42.4552295471
 20
28.2619835374
 30
0.0
  0
VERTEX
  5
582
  8
DV1_0
  6
CONTINUOUS
 62
     7
 10
42.5478189103
 20
28.2579905526
 30
0.0
  0
VERTEX
  5
583
  8
DV1_0
  6
CONTINUOUS
 62
     7
 10
42.6404181787
 20
28.2543329114
 30
0.0
  0
VERTEX
  5
584
  8
DV1_0
  6
CONTINUOUS
 62
     7
 10
42.7330274079
 20
28.2510125044
 30
0.0
  0
VERTEX
  5
585
  8
DV1_0
  6
CONTINUOUS
 62
     7
 10
42.8256466539
 20
28.2480312222
 30
0.0
  0
VERTEX
  5
586
  8
DV1_0
  6
CONTINUOUS
 62
     7
 10
42.9182759725
 20
28.2453909554
 30
0.0
  0
VERTEX
  5
587
  8
DV1_0
  6
CONTINUOUS
 62
     7
 10
43.0109154196
 20
28.2430935946
 30
0.0
  0
VERTEX
  5
588
  8
DV1_0
  6
CONTINUOUS
 62
     7
 10
43.103565051
 20
28.2411410304
 30
0.0
  0
VERTEX
  5
589
  8
DV1_0
  6
CONTINUOUS
 62
     7
 10
43.1962249225
 20
28.2395351534
 30
0.0
  0
VERTEX
  5
58A
  8
DV1_0
  6
CONTINUOUS
 62
     7
 10
43.28889509
 20
28.2382778543
 30
0.0
  0
VERTEX
  5
58B
  8
DV1_0
  6
CONTINUOUS
 62
     7
 10
43.3815756093
 20
28.2373710236
 30
0.0
  0
VERTEX
  5
58C
  8
DV1_0
  6
CONTINUOUS
 62
     7
 10
43.4742665363
 20
28.2368165519
 30
0.0
  0
VERTEX
  5
58D
  8
DV1_0
  6
CONTINUOUS
 62
     7
 10
43.5669679268
 20
28.2366163299
 30
0.0
  0
VERTEX
  5
58E
  8
DV1_0
  6
CONTINUOUS
 62
     7
 10
43.6596798212
 20
28.2367717247
 30
0.0
  0
VERTEX
  5
58F
  8
DV1_0
  6
CONTINUOUS
 62
     7
 10
43.7524021899
 20
28.2372817343
 30
0.0
  0
VERTEX
  5
590
  8
DV1_0
  6
CONTINUOUS
 62
     7
 10
43.8451349838
 20
28.2381446955
 30
0.0
  0
VERTEX
  5
591
  8
DV1_0
  6
CONTINUOUS
 62
     7
 10
43.9378781537
 20
28.2393589453
 30
0.0
  0
VERTEX
  5
592
  8
DV1_0
  6
CONTINUOUS
 62
     7
 10
44.0306316505
 20
28.2409228204
 30
0.0
  0
VERTEX
  5
593
  8
DV1_0
  6
CONTINUOUS
 62
     7
 10
44.1233954252
 20
28.2428346578
 30
0.0
  0
VERTEX
  5
594
  8
DV1_0
  6
CONTINUOUS
 62
     7
 10
44.2161694285
 20
28.2450927943
 30
0.0
  0
VERTEX
  5
595
  8
DV1_0
  6
CONTINUOUS
 62
     7
 10
44.3089536114
 20
28.2476955667
 30
0.0
  0
VERTEX
  5
596
  8
DV1_0
  6
CONTINUOUS
 62
     7
 10
44.4017479247
 20
28.2506413121
 30
0.0
  0
VERTEX
  5
597
  8
DV1_0
  6
CONTINUOUS
 62
     7
 10
44.4945523193
 20
28.2539283671
 30
0.0
  0
VERTEX
  5
598
  8
DV1_0
  6
CONTINUOUS
 62
     7
 10
44.587366746
 20
28.2575550687
 30
0.0
  0
VERTEX
  5
599
  8
DV1_0
  6
CONTINUOUS
 62
     7
 10
44.6801911559
 20
28.2615197537
 30
0.0
  0
VERTEX
  5
59A
  8
DV1_0
  6
CONTINUOUS
 62
     7
 10
44.7730254996
 20
28.265820759
 30
0.0
  0
VERTEX
  5
59B
  8
DV1_0
  6
CONTINUOUS
 62
     7
 10
44.8658697282
 20
28.2704564215
 30
0.0
  0
VERTEX
  5
59C
  8
DV1_0
  6
CONTINUOUS
 62
     7
 10
44.9587237925
 20
28.275425078
 30
0.0
  0
VERTEX
  5
59D
  8
DV1_0
  6
CONTINUOUS
 62
     7
 10
45.0515876433
 20
28.2807250654
 30
0.0
  0
VERTEX
  5
59E
  8
DV1_0
  6
CONTINUOUS
 62
     7
 10
45.1444612315
 20
28.2863547205
 30
0.0
  0
VERTEX
  5
59F
  8
DV1_0
  6
CONTINUOUS
 62
     7
 10
45.2373445081
 20
28.2923123803
 30
0.0
  0
VERTEX
  5
5A0
  8
DV1_0
  6
CONTINUOUS
 62
     7
 10
45.3302455137
 20
28.2985957123
 30
0.0
  0
VERTEX
  5
5A1
  8
DV1_0
  6
CONTINUOUS
 62
     7
 10
45.4231697476
 20
28.3052005312
 30
0.0
  0
VERTEX
  5
5A2
  8
DV1_0
  6
CONTINUOUS
 62
     7
 10
45.5161133485
 20
28.3121223948
 30
0.0
  0
VERTEX
  5
5A3
  8
DV1_0
  6
CONTINUOUS
 62
     7
 10
45.6090724549
 20
28.3193568608
 30
0.0
  0
VERTEX
  5
5A4
  8
DV1_0
  6
CONTINUOUS
 62
     7
 10
45.7020432054
 20
28.3268994869
 30
0.0
  0
VERTEX
  5
5A5
  8
DV1_0
  6
CONTINUOUS
 62
     7
 10
45.7950217388
 20
28.3347458309
 30
0.0
  0
VERTEX
  5
5A6
  8
DV1_0
  6
CONTINUOUS
 62
     7
 10
45.8880041936
 20
28.3428914505
 30
0.0
  0
VERTEX
  5
5A7
  8
DV1_0
  6
CONTINUOUS
 62
     7
 10
45.9809867085
 20
28.3513319035
 30
0.0
  0
VERTEX
  5
5A8
  8
DV1_0
  6
CONTINUOUS
 62
     7
 10
46.073965422
 20
28.3600627474
 30
0.0
  0
VERTEX
  5
5A9
  8
DV1_0
  6
CONTINUOUS
 62
     7
 10
46.1669364729
 20
28.3690795402
 30
0.0
  0
VERTEX
  5
5AA
  8
DV1_0
  6
CONTINUOUS
 62
     7
 10
46.2598959996
 20
28.3783778394
 30
0.0
  0
VERTEX
  5
5AB
  8
DV1_0
  6
CONTINUOUS
 62
     7
 10
46.3528401409
 20
28.3879532029
 30
0.0
  0
VERTEX
  5
5AC
  8
DV1_0
  6
CONTINUOUS
 62
     7
 10
46.4457650354
 20
28.3978011883
 30
0.0
  0
VERTEX
  5
5AD
  8
DV1_0
  6
CONTINUOUS
 62
     7
 10
46.5386668217
 20
28.4079173533
 30
0.0
  0
VERTEX
  5
5AE
  8
DV1_0
  6
CONTINUOUS
 62
     7
 10
46.6315416384
 20
28.4182972558
 30
0.0
  0
VERTEX
  5
5AF
  8
DV1_0
  6
CONTINUOUS
 62
     7
 10
46.7243856242
 20
28.4289364534
 30
0.0
  0
VERTEX
  5
5B0
  8
DV1_0
  6
CONTINUOUS
 62
     7
 10
46.8171949176
 20
28.4398305039
 30
0.0
  0
VERTEX
  5
5B1
  8
DV1_0
  6
CONTINUOUS
 62
     7
 10
46.9099656573
 20
28.4509749649
 30
0.0
  0
SEQEND
  5
7B0
  8
DV1_0
  6
CONTINUOUS
 62
     7
  0
LINE
  5
116
  8
DV1_0
  6
CONTINUOUS
 62
     7
 10
40.2358365006
 20
30.6269749649
 30
0.0
 11
40.2358365006
 21
28.4509749649
 31
0.0
  0
LINE
  5
117
  8
DV1_0
  6
CONTINUOUS
 62
     7
 10
46.9099656573
 20
28.4509749649
 30
0.0
 11
46.9099656573
 21
30.6269749649
 31
0.0
  0
LINE
  5
118
  8
DV1_0
  6
CONTINUOUS
 62
     7
 10
39.5603067193
 20
28.4509749649
 30
0.0
 11
39.5603067193
 21
30.6269749649
 31
0.0
  0
LINE
  5
119
  8
DV1_0
  6
CONTINUOUS
 62
     7
 10
47.5854954386
 20
30.6269749649
 30
0.0
 11
47.5854954386
 21
28.4509749649
 31
0.0
  0
LINE
  5
11A
  8
DV1_0
  6
CONTINUOUS
 62
     7
 10
47.4554200776
 20
30.7120129622
 30
0.0
 11
47.492901079
 21
30.7869749649
 31
0.0
  0
LINE
  5
11B
  8
DV1_0
  6
CONTINUOUS
 62
     7
 10
36.212901079
 20
28.4509749649
 30
0.0
 11
37.0488804599
 21
28.2269749649
 31
0.0
  0
LINE
  5
11C
  8
DV1_0
  6
CONTINUOUS
 62
     7
 10
50.0969216981
 20
28.2269749649
 30
0.0
 11
50.932901079
 21
28.4509749649
 31
0.0
  0
LINE
  5
11D
  8
DV1_0
  6
CONTINUOUS
 62
     7
 10
50.932901079
 20
28.4509749649
 30
0.0
 11
50.932901079
 21
30.6269749649
 31
0.0
  0
LINE
  5
11E
  8
DV1_0
  6
CONTINUOUS
 62
     7
 10
35.732901079
 20
30.7869749649
 30
0.0
 11
35.892901079
 21
30.6269749649
 31
0.0
  0
LINE
  5
11F
  8
DV1_0
  6
CONTINUOUS
 62
     7
 10
51.252901079
 20
30.6269749649
 30
0.0
 11
51.3867534047
 21
30.7608272906
 31
0.0
  0
LINE
  5
120
  8
DV1_0
  6
CONTINUOUS
 62
     7
 10
36.212901079
 20
30.6269749649
 30
0.0
 11
36.212901079
 21
28.4509749649
 31
0.0
  0
LINE
  5
121
  8
DV1_0
  6
CONTINUOUS
 62
     7
 10
51.3880717712
 20
30.7636054244
 30
0.0
 11
51.3127640154
 21
30.8070896071
 31
0.0
  0
LINE
  5
122
  8
DV1_0
  6
CONTINUOUS
 62
     7
 10
84.372901079
 20
55.1069749649
 30
0.0
 11
84.452901079
 21
55.1069749649
 31
0.0
  0
LINE
  5
123
  8
DV1_0
  6
CONTINUOUS
 62
     7
 10
75.652901079
 20
54.1469749649
 30
0.0
 11
78.292901079
 21
54.1469749649
 31
0.0
  0
LINE
  5
124
  8
DV1_0
  6
CONTINUOUS
 62
     7
 10
82.452901079
 20
54.1469749649
 30
0.0
 11
84.452901079
 21
54.1469749649
 31
0.0
  0
LINE
  5
125
  8
DV1_0
  6
CONTINUOUS
 62
     7
 10
77.5496531651
 20
63.1069749649
 30
0.0
 11
79.338341079
 21
63.1069749649
 31
0.0
  0
LINE
  5
126
  8
DV1_0
  6
CONTINUOUS
 62
     7
 10
81.407461079
 20
63.1069749649
 30
0.0
 11
82.3001489928
 21
63.1069749649
 31
0.0
  0
LINE
  5
127
  8
DV1_0
  6
CONTINUOUS
 62
     7
 10
84.452901079
 20
54.1469749649
 30
0.0
 11
84.452901079
 21
55.1069749649
 31
0.0
  0
LINE
  5
128
  8
DV1_0
  6
CONTINUOUS
 62
     7
 10
75.652901079
 20
55.1069749649
 30
0.0
 11
75.652901079
 21
54.1469749649
 31
0.0
  0
LINE
  5
129
  8
DV1_0
  6
CONTINUOUS
 62
     7
 10
82.484901079
 20
62.7869749649
 30
0.0
 11
82.3001489928
 21
63.1069749649
 31
0.0
  0
LINE
  5
12A
  8
DV1_0
  6
CONTINUOUS
 62
     7
 10
77.5496531651
 20
63.1069749649
 30
0.0
 11
77.364901079
 21
62.7869749649
 31
0.0
  0
LINE
  5
12B
  8
DV1_0
  6
CONTINUOUS
 62
     7
 10
82.484901079
 20
60.0669749649
 30
0.0
 11
82.484901079
 21
62.7869749649
 31
0.0
  0
LINE
  5
12C
  8
DV1_0
  6
CONTINUOUS
 62
     7
 10
77.364901079
 20
62.7869749649
 30
0.0
 11
77.364901079
 21
60.0669749649
 31
0.0
  0
LINE
  5
12D
  8
DV1_0
  6
CONTINUOUS
 62
     7
 10
82.452901079
 20
59.9069749649
 30
0.0
 11
82.452901079
 21
59.9391235792
 31
0.0
  0
LINE
  5
12E
  8
DV1_0
  6
CONTINUOUS
 62
     7
 10
77.396901079
 20
59.9391235792
 30
0.0
 11
77.396901079
 21
59.9069749649
 31
0.0
  0
ARC
  5
12F
  8
DV1_0
  6
CONTINUOUS
 62
     7
 10
82.516901079
 20
59.9391235792
 30
0.0
 40
0.0639999999999974
 50
165.0
 51
180.0
  0
ARC
  5
130
  8
DV1_0
  6
CONTINUOUS
 62
     7
 10
77.332901079
 20
59.9391235792
 30
0.0
 40
0.064
 50
0.0
 51
15.0
  0
LINE
  5
131
  8
DV1_0
  6
CONTINUOUS
 62
     7
 10
77.364901079
 20
60.0669749649
 30
0.0
 11
77.3947203319
 21
59.9556879981
 31
0.0
  0
LINE
  5
132
  8
DV1_0
  6
CONTINUOUS
 62
     7
 10
82.4550818261
 20
59.9556879981
 30
0.0
 11
82.484901079
 21
60.0669749649
 31
0.0
  0
LINE
  5
133
  8
DV1_0
  6
CONTINUOUS
 62
     7
 10
82.932901079
 20
51.9069749649
 30
0.0
 11
77.172901079
 21
51.9069749649
 31
0.0
  0
LINE
  5
134
  8
DV1_0
  6
CONTINUOUS
 62
     7
 10
82.932901079
 20
54.1469749649
 30
0.0
 11
82.452901079
 21
54.1469749649
 31
0.0
  0
LINE
  5
135
  8
DV1_0
  6
CONTINUOUS
 62
     7
 10
78.292901079
 20
54.1469749649
 30
0.0
 11
77.172901079
 21
54.1469749649
 31
0.0
  0
LINE
  5
136
  8
DV1_0
  6
CONTINUOUS
 62
     7
 10
82.932901079
 20
51.9069749649
 30
0.0
 11
82.932901079
 21
54.1469749649
 31
0.0
  0
LINE
  5
137
  8
DV1_0
  6
CONTINUOUS
 62
     7
 10
77.172901079
 20
51.9069749649
 30
0.0
 11
77.172901079
 21
54.1469749649
 31
0.0
  0
LINE
  5
138
  8
DV1_0
  6
CONTINUOUS
 62
     7
 10
77.972901079
 20
51.9069749649
 30
0.0
 11
82.132901079
 21
51.9069749649
 31
0.0
  0
LINE
  5
139
  8
DV1_0
  6
CONTINUOUS
 62
     7
 10
77.972901079
 20
51.9069749649
 30
0.0
 11
77.972901079
 21
51.6509749649
 31
0.0
  0
LINE
  5
13A
  8
DV1_0
  6
CONTINUOUS
 62
     7
 10
82.132901079
 20
51.6509749649
 30
0.0
 11
82.132901079
 21
51.9069749649
 31
0.0
  0
LINE
  5
13B
  8
DV1_0
  6
CONTINUOUS
 62
     7
 10
81.876901079
 20
49.0909749649
 30
0.0
 11
78.228901079
 21
49.0909749649
 31
0.0
  0
LINE
  5
13C
  8
DV1_0
  6
CONTINUOUS
 62
     7
 10
77.972901079
 20
49.3469749649
 30
0.0
 11
78.228901079
 21
49.0909749649
 31
0.0
  0
LINE
  5
13D
  8
DV1_0
  6
CONTINUOUS
 62
     7
 10
81.876901079
 20
49.0909749649
 30
0.0
 11
82.132901079
 21
49.3469749649
 31
0.0
  0
LINE
  5
13E
  8
DV1_0
  6
CONTINUOUS
 62
     7
 10
77.972901079
 20
51.5437749649
 30
0.0
 11
77.972901079
 21
49.3469749649
 31
0.0
  0
LINE
  5
13F
  8
DV1_0
  6
CONTINUOUS
 62
     7
 10
82.132901079
 20
49.3469749649
 30
0.0
 11
82.132901079
 21
51.5437749649
 31
0.0
  0
LINE
  5
140
  8
DV1_0
  6
CONTINUOUS
 62
     7
 10
61.484901079
 20
87.7469749649
 30
0.0
 11
57.660901079
 21
87.7469749649
 31
0.0
  0
LINE
  5
141
  8
DV1_0
  6
CONTINUOUS
 62
     7
 10
60.9306448205
 20
88.7069749649
 30
0.0
 11
58.2151573374
 21
88.7069749649
 31
0.0
  0
ARC
  5
142
  8
DV1_0
  6
CONTINUOUS
 62
     7
 10
61.8073942326
 20
85.6676430034
 30
0.0
 40
0.3224938454993565
 50
180.1186869574
 51
209.8813130414
  0
LINE
  5
143
  8
DV1_0
  6
CONTINUOUS
 62
     7
 10
61.484901079
 20
85.6669749649
 30
0.0
 11
61.484901079
 21
87.7469749649
 31
0.0
  0
LINE
  5
144
  8
DV1_0
  6
CONTINUOUS
 62
     7
 10
61.484901079
 20
87.7469749649
 30
0.0
 11
60.9306448205
 21
88.7069749649
 31
0.0
  0
LINE
  5
145
  8
DV1_0
  6
CONTINUOUS
 62
     7
 10
58.2151573374
 20
88.7069749649
 30
0.0
 11
57.660901079
 21
87.7469749649
 31
0.0
  0
LINE
  5
146
  8
DV1_0
  6
CONTINUOUS
 62
     7
 10
57.660901079
 20
87.7469749649
 30
0.0
 11
57.660901079
 21
85.6669749649
 31
0.0
  0
ARC
  5
147
  8
DV1_0
  6
CONTINUOUS
 62
     7
 10
57.3383950956
 20
85.6676464411
 30
0.0
 40
0.3225066824206636
 50
330.119292976
 51
359.8807070252
  0
LINE
  5
149
  8
2A_GESTRICHELT_1
  6
HIDDEN2
 62
     1
 10
42.292901079
 20
45.0897437402
 30
0.0
 11
42.292901079
 21
54.5297437402
 31
0.0
  0
LINE
  5
14A
  8
2A_GESTRICHELT_1
  6
HIDDEN2
 62
     1
 10
44.852901079
 20
54.5297437402
 30
0.0
 11
42.292901079
 21
54.5297437402
 31
0.0
  0
LINE
  5
14B
  8
2A_GESTRICHELT_1
  6
HIDDEN2
 62
     1
 10
44.852901079
 20
45.0897437402
 30
0.0
 11
44.852901079
 21
54.5297437402
 31
0.0
  0
LINE
  5
14C
  8
2A_GESTRICHELT_1
  6
HIDDEN2
 62
     1
 10
42.292901079
 20
45.0897437402
 30
0.0
 11
44.852901079
 21
45.0897437402
 31
0.0
  0
LINE
  5
14E
  8
0A_AUSSEN_DICK
  6
HIDDEN2
 62
     3
 10
39.732901079
 20
46.1469749649
 30
0.0
 11
47.412901079
 21
46.1469749649
 31
0.0
  0
LINE
  5
14F
  8
2A_GESTRICHELT_1
  6
HIDDEN2
 62
     1
 10
39.732901079
 20
43.3200955404
 30
0.0
 11
39.732901079
 21
46.1469749649
 31
0.0
  0
LINE
  5
150
  8
2A_GESTRICHELT_1
  6
HIDDEN2
 62
     1
 10
47.412901079
 20
43.3191209242
 30
0.0
 11
47.412901079
 21
46.1469749649
 31
0.0
  0
LINE
  5
151
  8
2A_GESTRICHELT_1
  6
HIDDEN2
 62
     1
 10
38.292901079
 20
33.5697437402
 30
0.0
 11
39.732901079
 21
43.3200955404
 31
0.0
  0
LINE
  5
152
  8
0A_AUSSEN_DICK
  6
HIDDEN2
 62
     3
 10
39.732901079
 20
43.3200955404
 30
0.0
 11
47.412901079
 21
43.3191209242
 31
0.0
  0
LINE
  5
153
  8
2A_GESTRICHELT_1
  6
HIDDEN2
 62
     1
 10
48.852901079
 20
33.5697437402
 30
0.0
 11
47.412901079
 21
43.3191209242
 31
0.0
  0
LINE
  5
154
  8
2A_GESTRICHELT_1
  6
HIDDEN2
 62
     1
 10
38.932901079
 20
33.5697437402
 30
0.0
 11
38.292901079
 21
33.5697437402
 31
0.0
  0
LINE
  5
155
  8
2A_GESTRICHELT_1
  6
HIDDEN2
 62
     1
 10
38.292901079
 20
32.4497437402
 30
0.0
 11
38.932901079
 21
32.4497437402
 31
0.0
  0
LINE
  5
156
  8
2A_GESTRICHELT_1
  6
HIDDEN2
 62
     1
 10
38.932901079
 20
33.5697437402
 30
0.0
 11
38.932901079
 21
32.4497437402
 31
0.0
  0
LINE
  5
157
  8
0A_AUSSEN_DICK
  6
HIDDEN2
 62
     3
 10
39.252901079
 20
30.7869749649
 30
0.0
 11
47.892901079
 21
30.7869749649
 31
0.0
  0
LINE
  5
158
  8
2A_GESTRICHELT_1
  6
HIDDEN2
 62
     1
 10
38.292901079
 20
32.4497437402
 30
0.0
 11
39.252901079
 21
30.7869749649
 31
0.0
  0
LINE
  5
159
  8
2A_GESTRICHELT_1
  6
HIDDEN2
 62
     1
 10
48.852901079
 20
32.4497437402
 30
0.0
 11
47.892901079
 21
30.7869749649
 31
0.0
  0
LINE
  5
15A
  8
2A_GESTRICHELT_1
  6
HIDDEN2
 62
     1
 10
48.212901079
 20
33.5697437402
 30
0.0
 11
48.852901079
 21
33.5697437402
 31
0.0
  0
LINE
  5
15B
  8
2A_GESTRICHELT_1
  6
HIDDEN2
 62
     1
 10
48.852901079
 20
32.4497437402
 30
0.0
 11
48.212901079
 21
32.4497437402
 31
0.0
  0
LINE
  5
15C
  8
2A_GESTRICHELT_1
  6
HIDDEN2
 62
     1
 10
48.212901079
 20
33.5697437402
 30
0.0
 11
48.212901079
 21
32.4497437402
 31
0.0
  0
LINE
  5
15F
  8
DV1_DEFAULT
  6
CENTER2
 62
     1
 10
59.572901079
 20
58.8273889748
 30
0.0
 11
59.572901079
 21
90.3529430035
 31
0.0
  0
LINE
  5
160
  8
DV1_DEFAULT
  6
CENTER2
 62
     1
 10
80.372901079
 20
52.2124363172
 30
0.0
 11
80.372901079
 21
63.4215349649
 31
0.0
  0
LINE
  5
161
  8
DV1_DEFAULT
  6
CENTER2
 62
     1
 10
80.052901079
 20
52.1037749649
 30
0.0
 11
80.052901079
 21
48.7869749649
 31
0.0
  0
LINE
  5
163
  8
1A_AUSSEN_DUENN
  6
CONTINUOUS
 62
     1
 10
56.8301810232
 20
27.3592979879
 30
0.0
 11
55.7771691821
 21
22.5808457004
 31
0.0
  0
LINE
  5
164
  8
1A_AUSSEN_DUENN
  6
CONTINUOUS
 62
     1
 10
57.0247784364
 20
27.2787072865
 30
0.0
 11
56.6443955268
 21
22.394407429
 31
0.0
  0
LINE
  5
165
  8
1A_AUSSEN_DUENN
  6
CONTINUOUS
 62
     1
 10
56.6197341476
 20
27.3679655665
 30
0.0
 11
54.9086928546
 21
22.7675526961
 31
0.0
  0
LINE
  5
166
  8
DV1_DEFAULT
  6
CENTER2
 62
     1
 10
51.6503796352
 20
38.2068879243
 30
0.0
 11
51.6503796352
 21
32.2214257882
 31
0.0
  0
LINE
  5
167
  8
DV1_DEFAULT
  6
CENTER2
 62
     1
 10
45.172901079
 20
57.7309749649
 30
0.0
 11
45.172901079
 21
63.4061749649
 31
0.0
  0
LINE
  5
168
  8
DV1_DEFAULT
  6
CENTER2
 62
     1
 10
43.572901079
 20
56.0838050134
 30
0.0
 11
43.572901079
 21
27.3392853281
 31
0.0
  0
LINE
  5
169
  8
DV1_DEFAULT
  6
CONTINUOUS
 62
     1
 10
43.572901079
 20
28.2269749649
 30
0.0
 11
41.972901079
 21
28.2269749649
 31
0.0
  0
LINE
  5
16A
  8
DV1_DEFAULT
  6
CONTINUOUS
 62
     1
 10
43.572901079
 20
28.2269749649
 30
0.0
 11
45.172901079
 21
28.2269749649
 31
0.0
  0
LINE
  5
16C
  8
DV1_DEFAULT
  6
DASHDOT2
 62
     1
 10
35.892901079
 20
62.8829749649
 30
0.0
 11
35.892901079
 21
59.3309749649
 31
0.0
  0
LINE
  5
16E
  8
DV2_0
  6
CONTINUOUS
 62
     7
 10
65.652901079
 20
146.9589748791
 30
0.0
 11
69.492901079
 21
145.5613291795
 31
0.0
  0
LINE
  5
16F
  8
DV2_0
  6
CONTINUOUS
 62
     7
 10
69.492901079
 20
122.7566205787
 30
0.0
 11
65.652901079
 21
121.3589748791
 31
0.0
  0
CIRCLE
  5
170
  8
DV2_0
  6
CONTINUOUS
 62
     7
 10
56.852901079
 20
125.1989748791
 30
0.0
 40
1.920000000000002
  0
LINE
  5
171
  8
DV2_0
  6
CONTINUOUS
 62
     7
 10
75.572901079
 20
124.969559603
 30
0.0
 11
69.492901079
 21
122.7566205787
 31
0.0
  0
LINE
  5
172
  8
DV2_0
  6
CONTINUOUS
 62
     7
 10
75.572901079
 20
143.3483901552
 30
0.0
 11
75.572901079
 21
124.969559603
 31
0.0
  0
LINE
  5
173
  8
DV2_0
  6
CONTINUOUS
 62
     7
 10
69.492901079
 20
145.5613291795
 30
0.0
 11
75.572901079
 21
143.3483901552
 31
0.0
  0
LINE
  5
174
  8
DV2_0
  6
CONTINUOUS
 62
     7
 10
65.652901079
 20
121.3589748791
 30
0.0
 11
34.292901079
 21
121.3589748791
 31
0.0
  0
LINE
  5
175
  8
DV2_0
  6
CONTINUOUS
 62
     7
 10
31.092901079
 20
143.7589748791
 30
0.0
 11
34.292901079
 21
146.9589748791
 31
0.0
  0
LINE
  5
176
  8
DV2_0
  6
CONTINUOUS
 62
     7
 10
34.292901079
 20
121.3589748791
 30
0.0
 11
31.092901079
 21
124.5589748791
 31
0.0
  0
LINE
  5
177
  8
DV2_0
  6
CONTINUOUS
 62
     7
 10
31.092901079
 20
124.5589748791
 30
0.0
 11
31.092901079
 21
143.7589748791
 31
0.0
  0
CIRCLE
  5
178
  8
DV2_0
  6
HIDDEN2
 62
     1
 10
59.572901079
 20
134.1589748791
 30
0.0
 40
6.399999999999993
  0
CIRCLE
  5
179
  8
DV2_0
  6
HIDDEN2
 62
     1
 10
59.572901079
 20
134.1589748791
 30
0.0
 40
10.816
  0
ARC
  5
17A
  8
DV2_0
  6
HIDDEN2
 62
     1
 10
73.972901079
 20
143.7589748791
 30
0.0
 40
1.36
 50
179.4405146734
 51
0.5594853266
  0
ARC
  5
17B
  8
DV2_0
  6
HIDDEN2
 62
     1
 10
73.972901079
 20
143.7589748791
 30
0.0
 40
1.36
 50
0.5594853266
 51
179.4405146734
  0
LINE
  5
17C
  8
DV2_0
  6
CONTINUOUS
 62
     7
 10
65.6512866274
 20
121.3589748791
 30
0.0
 11
63.892901079
 21
120.7189748791
 31
0.0
  0
LINE
  5
17D
  8
DV2_0
  6
CONTINUOUS
 62
     7
 10
63.892901079
 20
120.7189748791
 30
0.0
 11
57.332901079
 21
120.7189748791
 31
0.0
  0
LINE
  5
17E
  8
DV2_0
  6
CONTINUOUS
 62
     7
 10
52.852901079
 20
120.7189748791
 30
0.0
 11
34.932901079
 21
120.7189748791
 31
0.0
  0
LINE
  5
17F
  8
DV2_0
  6
CONTINUOUS
 62
     7
 10
34.932901079
 20
120.7189748791
 30
0.0
 11
34.292901079
 21
121.3589748791
 31
0.0
  0
LINE
  5
180
  8
DV2_0
  6
CONTINUOUS
 62
     7
 10
34.292901079
 20
146.9589748791
 30
0.0
 11
34.932901079
 21
147.5989748791
 31
0.0
  0
LINE
  5
181
  8
DV2_0
  6
CONTINUOUS
 62
     7
 10
34.932901079
 20
147.5989748791
 30
0.0
 11
63.892901079
 21
147.5989748791
 31
0.0
  0
LINE
  5
182
  8
DV2_0
  6
CONTINUOUS
 62
     7
 10
63.892901079
 20
147.5989748791
 30
0.0
 11
65.6512866274
 21
146.9589748791
 31
0.0
  0
LINE
  5
183
  8
DV2_0
  6
CONTINUOUS
 62
     7
 10
84.372901079
 20
120.7189748791
 30
0.0
 11
63.892901079
 21
120.7189748791
 31
0.0
  0
LINE
  5
184
  8
DV2_0
  6
CONTINUOUS
 62
     7
 10
84.532901079
 20
147.4389748791
 30
0.0
 11
84.532901079
 21
120.8789748791
 31
0.0
  0
LINE
  5
185
  8
DV2_0
  6
CONTINUOUS
 62
     7
 10
63.892901079
 20
147.5989748791
 30
0.0
 11
84.372901079
 21
147.5989748791
 31
0.0
  0
LINE
  5
186
  8
DV2_0
  6
CONTINUOUS
 62
     7
 10
84.532901079
 20
147.4389748791
 30
0.0
 11
84.372901079
 21
147.5989748791
 31
0.0
  0
LINE
  5
187
  8
DV2_0
  6
CONTINUOUS
 62
     7
 10
84.372901079
 20
120.7189748791
 30
0.0
 11
84.532901079
 21
120.8789748791
 31
0.0
  0
CIRCLE
  5
188
  8
DV2_0
  6
CONTINUOUS
 62
     7
 10
80.372901079
 20
145.0389748791
 30
0.0
 40
2.080000000000001
  0
CIRCLE
  5
189
  8
DV2_0
  6
CONTINUOUS
 62
     7
 10
80.372901079
 20
123.2789748791
 30
0.0
 40
2.080000000000001
  0
ARC
  5
18A
  8
DV2_0
  6
CONTINUOUS
 62
     7
 10
56.852901079
 20
125.1989748791
 30
0.0
 40
1.12
 50
221.7867892983
 51
58.2132107017
  0
ARC
  5
18B
  8
DV2_0
  6
CONTINUOUS
 62
     7
 10
56.852901079
 20
125.1989748791
 30
0.0
 40
1.12
 50
58.2132107017
 51
221.7867892983
  0
CIRCLE
  5
18C
  8
DV2_0
  6
HIDDEN2
 62
     1
 10
45.172901079
 20
145.0389748791
 30
0.0
 40
2.080000000000001
  0
CIRCLE
  5
18D
  8
DV2_0
  6
HIDDEN2
 62
     1
 10
45.172901079
 20
123.2789748791
 30
0.0
 40
2.080000000000001
  0
LINE
  5
18E
  8
DV2_0
  6
CONTINUOUS
 62
     7
 10
57.332901079
 20
120.286975337
 30
0.0
 11
52.852901079
 21
120.286975337
 31
0.0
  0
LINE
  5
18F
  8
DV2_0
  6
CONTINUOUS
 62
     7
 10
52.852901079
 20
121.246975337
 30
0.0
 11
52.852901079
 21
120.286975337
 31
0.0
  0
LINE
  5
190
  8
DV2_0
  6
CONTINUOUS
 62
     7
 10
57.332901079
 20
120.286975337
 30
0.0
 11
57.332901079
 21
121.246975337
 31
0.0
  0
LINE
  5
191
  8
DV2_0
  6
CONTINUOUS
 62
     7
 10
52.964901079
 20
121.3589748791
 30
0.0
 11
52.964901079
 21
121.2469748791
 31
0.0
  0
LINE
  5
192
  8
DV2_0
  6
CONTINUOUS
 62
     7
 10
57.220901079
 20
121.2469748791
 30
0.0
 11
57.220901079
 21
121.3589748791
 31
0.0
  0
ARC
  5
193
  8
DV2_0
  6
CONTINUOUS
 62
     7
 10
51.6503796352
 20
144.4976759664
 30
0.0
 40
1.600000000000002
 50
235.8419327632
 51
244.1580672368
  0
ARC
  5
194
  8
DV2_0
  6
CONTINUOUS
 62
     7
 10
51.6503796352
 20
144.4976759664
 30
0.0
 40
1.599999999999999
 50
175.8419327632
 51
184.1580672368
  0
ARC
  5
195
  8
DV2_0
  6
CONTINUOUS
 62
     7
 10
51.6503796352
 20
144.4976759664
 30
0.0
 40
1.599999999999997
 50
115.8419327632
 51
124.1580672368
  0
ARC
  5
196
  8
DV2_0
  6
CONTINUOUS
 62
     7
 10
51.6503796352
 20
144.4976759664
 30
0.0
 40
1.6
 50
55.8419327632
 51
64.1580672368
  0
ARC
  5
197
  8
DV2_0
  6
CONTINUOUS
 62
     7
 10
51.6503796352
 20
144.4976759664
 30
0.0
 40
1.599999999999999
 50
355.8419327632
 51
4.1580672368
  0
ARC
  5
198
  8
DV2_0
  6
CONTINUOUS
 62
     7
 10
51.6503796352
 20
144.4976759664
 30
0.0
 40
1.599999999999999
 50
295.8419327632
 51
304.1580672368
  0
LINE
  5
199
  8
DV2_0
  6
CONTINUOUS
 62
     7
 10
50.0545911383
 20
144.3816627213
 30
0.0
 11
50.7520149693
 21
143.1736892116
 31
0.0
  0
LINE
  5
19A
  8
DV2_0
  6
CONTINUOUS
 62
     7
 10
50.9529558043
 20
143.0576759664
 30
0.0
 11
52.3478034662
 21
143.0576759664
 31
0.0
  0
LINE
  5
19B
  8
DV2_0
  6
CONTINUOUS
 62
     7
 10
52.5487443012
 20
143.1736892116
 30
0.0
 11
53.2461681322
 21
144.3816627213
 31
0.0
  0
LINE
  5
19C
  8
DV2_0
  6
CONTINUOUS
 62
     7
 10
53.2461681322
 20
144.6136892116
 30
0.0
 11
52.5487443012
 21
145.8216627213
 31
0.0
  0
LINE
  5
19D
  8
DV2_0
  6
CONTINUOUS
 62
     7
 10
52.3478034662
 20
145.9376759664
 30
0.0
 11
50.9529558043
 21
145.9376759664
 31
0.0
  0
LINE
  5
19E
  8
DV2_0
  6
CONTINUOUS
 62
     7
 10
50.7520149693
 20
145.8216627213
 30
0.0
 11
50.0545911383
 21
144.6136892116
 31
0.0
  0
CIRCLE
  5
19F
  8
DV2_0
  6
CONTINUOUS
 62
     7
 10
51.6503796352
 20
144.4976759664
 30
0.0
 40
1.28
  0
CIRCLE
  5
1A0
  8
DV2_0
  6
CONTINUOUS
 62
     7
 10
43.572901079
 20
134.1589748791
 30
0.0
 40
11.2
  0
CIRCLE
  5
1A1
  8
DV2_0
  6
CONTINUOUS
 62
     7
 10
43.572901079
 20
134.1589748791
 30
0.0
 40
8.032000000000002
  0
CIRCLE
  5
1A2
  8
DV2_0
  6
CONTINUOUS
 62
     7
 10
43.572901079
 20
134.1589748791
 30
0.0
 40
3.52
  0
ARC
  5
1A3
  8
DV2_0
  6
CONTINUOUS
 62
     7
 10
43.572901079
 20
134.1589748791
 30
0.0
 40
10.27199999999934
 50
83.9178670287
 51
96.0821329713
  0
LINE
  5
1A4
  8
DV2_0
  6
CONTINUOUS
 62
     7
 10
42.503413072
 20
144.356138781
 30
0.0
 11
42.4845416593
 21
144.3731541302
 31
0.0
  0
LINE
  5
1A5
  8
DV2_0
  6
CONTINUOUS
 62
     7
 10
44.6612604986
 20
144.3731541302
 30
0.0
 11
44.6293009181
 21
144.3443378761
 31
0.0
  0
ARC
  5
1A6
  8
DV2_0
  6
CONTINUOUS
 62
     7
 10
43.572901079
 20
134.1589748791
 30
0.0
 40
10.24
 50
95.9213997247
 51
144.0786002753
  0
LINE
  5
1A7
  8
DV2_0
  6
CONTINUOUS
 62
     7
 10
42.5190553004
 20
144.3420350155
 30
0.0
 11
42.5165012398
 21
144.3443378761
 31
0.0
  0
LINE
  5
1A8
  8
DV2_0
  6
CONTINUOUS
 62
     7
 10
44.6293009181
 20
144.3443378761
 30
0.0
 11
44.6267468575
 21
144.3420350155
 31
0.0
  0
LINE
  5
1A9
  8
DV2_0
  6
CONTINUOUS
 62
     7
 10
42.612901079
 20
144.2574192676
 30
0.0
 11
42.5190553004
 21
144.3420350155
 31
0.0
  0
LINE
  5
1AA
  8
DV2_0
  6
CONTINUOUS
 62
     7
 10
44.6267468575
 20
144.3420350155
 30
0.0
 11
44.532901079
 21
144.2574192676
 31
0.0
  0
ARC
  5
1AB
  8
DV2_0
  6
CONTINUOUS
 62
     7
 10
43.572901079
 20
143.5989748791
 30
0.0
 40
0.9599999999999989
 50
180.0
 51
0.0
  0
LINE
  5
1AC
  8
DV2_0
  6
CONTINUOUS
 62
     7
 10
44.532901079
 20
144.0789748791
 30
0.0
 11
44.532901079
 21
143.5989748791
 31
0.0
  0
LINE
  5
1AD
  8
DV2_0
  6
CONTINUOUS
 62
     7
 10
42.612901079
 20
143.5989748791
 30
0.0
 11
42.612901079
 21
144.0789748791
 31
0.0
  0
LINE
  5
1AE
  8
DV2_0
  6
CONTINUOUS
 62
     7
 10
42.612901079
 20
144.0789748791
 30
0.0
 11
42.612901079
 21
144.2574192676
 31
0.0
  0
LINE
  5
1AF
  8
DV2_0
  6
CONTINUOUS
 62
     7
 10
44.532901079
 20
144.2574192676
 30
0.0
 11
44.532901079
 21
144.0789748791
 31
0.0
  0
ARC
  5
1B0
  8
DV2_0
  6
CONTINUOUS
 62
     7
 10
43.572901079
 20
134.1589748791
 30
0.0
 40
10.27199999999934
 50
143.9178670287
 51
156.0821329713
  0
LINE
  5
1B1
  8
DV2_0
  6
CONTINUOUS
 62
     7
 10
34.2071540899
 20
138.331353047
 30
0.0
 11
34.1829826589
 21
138.3235175988
 31
0.0
  0
LINE
  5
1B2
  8
DV2_0
  6
CONTINUOUS
 62
     7
 10
35.2713420785
 20
140.2086114105
 30
0.0
 11
35.2803178964
 21
140.1665254748
 31
0.0
  0
LINE
  5
1B3
  8
DV2_0
  6
CONTINUOUS
 62
     7
 10
35.2803178964
 20
140.1665254748
 30
0.0
 11
35.2810352019
 21
140.1631621632
 31
0.0
  0
ARC
  5
1B4
  8
DV2_0
  6
CONTINUOUS
 62
     7
 10
43.572901079
 20
134.1589748791
 30
0.0
 40
10.24
 50
155.9213997247
 51
204.0786002753
  0
LINE
  5
1B5
  8
DV2_0
  6
CONTINUOUS
 62
     7
 10
34.2271894233
 20
138.3378477314
 30
0.0
 11
34.2239180573
 21
138.3367872804
 31
0.0
  0
LINE
  5
1B6
  8
DV2_0
  6
CONTINUOUS
 62
     7
 10
34.3473916998
 20
138.3768126857
 30
0.0
 11
34.2271894233
 21
138.3378477314
 31
0.0
  0
LINE
  5
1B7
  8
DV2_0
  6
CONTINUOUS
 62
     7
 10
35.2810352019
 20
140.1631621632
 30
0.0
 11
35.3073916998
 21
140.039581461
 31
0.0
  0
ARC
  5
1B8
  8
DV2_0
  6
CONTINUOUS
 62
     7
 10
35.3976212672
 20
138.8789748791
 30
0.0
 40
0.9599999999999983
 50
240.0000000014
 51
60.0000000014
  0
LINE
  5
1B9
  8
DV2_0
  6
CONTINUOUS
 62
     7
 10
35.4619290734
 20
139.9503592667
 30
0.0
 11
35.8776212672
 21
139.7103592668
 31
0.0
  0
LINE
  5
1BA
  8
DV2_0
  6
CONTINUOUS
 62
     7
 10
34.9176212673
 20
138.0475904915
 30
0.0
 11
34.5019290734
 21
138.2875904915
 31
0.0
  0
LINE
  5
1BB
  8
DV2_0
  6
CONTINUOUS
 62
     7
 10
34.5019290734
 20
138.2875904915
 30
0.0
 11
34.3473916998
 21
138.3768126857
 31
0.0
  0
LINE
  5
1BC
  8
DV2_0
  6
CONTINUOUS
 62
     7
 10
35.3073916998
 20
140.039581461
 30
0.0
 11
35.4619290734
 21
139.9503592667
 31
0.0
  0
ARC
  5
1BD
  8
DV2_0
  6
CONTINUOUS
 62
     7
 10
43.572901079
 20
134.1589748791
 30
0.0
 40
10.27199999999934
 50
203.9178670287
 51
216.0821329713
  0
LINE
  5
1BE
  8
DV2_0
  6
CONTINUOUS
 62
     7
 10
35.2766420969
 20
128.134189145
 30
0.0
 11
35.2713420785
 21
128.1093383477
 31
0.0
  0
LINE
  5
1BF
  8
DV2_0
  6
CONTINUOUS
 62
     7
 10
34.1829826589
 20
129.9944321594
 30
0.0
 11
34.2239180573
 21
129.9811624779
 31
0.0
  0
LINE
  5
1C0
  8
DV2_0
  6
CONTINUOUS
 62
     7
 10
34.2239180573
 20
129.9811624779
 30
0.0
 11
34.2271894233
 21
129.9801020268
 31
0.0
  0
ARC
  5
1C1
  8
DV2_0
  6
CONTINUOUS
 62
     7
 10
43.572901079
 20
134.1589748791
 30
0.0
 40
10.24
 50
215.9213997247
 51
264.0786002753
  0
LINE
  5
1C2
  8
DV2_0
  6
CONTINUOUS
 62
     7
 10
35.2810352019
 20
128.154787595
 30
0.0
 11
35.2803178964
 21
128.1514242834
 31
0.0
  0
LINE
  5
1C3
  8
DV2_0
  6
CONTINUOUS
 62
     7
 10
35.3073916998
 20
128.2783682972
 30
0.0
 11
35.2810352019
 21
128.154787595
 31
0.0
  0
LINE
  5
1C4
  8
DV2_0
  6
CONTINUOUS
 62
     7
 10
34.2271894233
 20
129.9801020268
 30
0.0
 11
34.3473916998
 21
129.9411370725
 31
0.0
  0
ARC
  5
1C5
  8
DV2_0
  6
CONTINUOUS
 62
     7
 10
35.3976212672
 20
129.4389748791
 30
0.0
 40
0.9599999999999997
 50
299.9999999986
 51
119.9999999986
  0
LINE
  5
1C6
  8
DV2_0
  6
CONTINUOUS
 62
     7
 10
34.5019290734
 20
130.0303592667
 30
0.0
 11
34.9176212673
 21
130.2703592668
 31
0.0
  0
LINE
  5
1C7
  8
DV2_0
  6
CONTINUOUS
 62
     7
 10
35.8776212672
 20
128.6075904915
 30
0.0
 11
35.4619290734
 21
128.3675904915
 31
0.0
  0
LINE
  5
1C8
  8
DV2_0
  6
CONTINUOUS
 62
     7
 10
35.4619290734
 20
128.3675904915
 30
0.0
 11
35.3073916998
 21
128.2783682972
 31
0.0
  0
LINE
  5
1C9
  8
DV2_0
  6
CONTINUOUS
 62
     7
 10
34.3473916998
 20
129.9411370725
 30
0.0
 11
34.5019290734
 21
130.0303592667
 31
0.0
  0
ARC
  5
1CA
  8
DV2_0
  6
CONTINUOUS
 62
     7
 10
43.572901079
 20
134.1589748791
 30
0.0
 40
10.27199999999934
 50
263.9178670287
 51
276.0821329713
  0
LINE
  5
1CB
  8
DV2_0
  6
CONTINUOUS
 62
     7
 10
44.642389086
 20
123.9618109772
 30
0.0
 11
44.6612604986
 21
123.944795628
 31
0.0
  0
LINE
  5
1CC
  8
DV2_0
  6
CONTINUOUS
 62
     7
 10
42.4845416593
 20
123.944795628
 30
0.0
 11
42.5165012398
 21
123.9736118821
 31
0.0
  0
LINE
  5
1CD
  8
DV2_0
  6
CONTINUOUS
 62
     7
 10
42.5165012398
 20
123.9736118821
 30
0.0
 11
42.5190553004
 21
123.9759147427
 31
0.0
  0
ARC
  5
1CE
  8
DV2_0
  6
CONTINUOUS
 62
     7
 10
43.572901079
 20
134.1589748791
 30
0.0
 40
10.24
 50
275.9213997247
 51
324.0786002753
  0
LINE
  5
1CF
  8
DV2_0
  6
CONTINUOUS
 62
     7
 10
44.6267468575
 20
123.9759147427
 30
0.0
 11
44.6293009181
 21
123.9736118821
 31
0.0
  0
LINE
  5
1D0
  8
DV2_0
  6
CONTINUOUS
 62
     7
 10
44.532901079
 20
124.0605304906
 30
0.0
 11
44.6267468575
 21
123.9759147427
 31
0.0
  0
LINE
  5
1D1
  8
DV2_0
  6
CONTINUOUS
 62
     7
 10
42.5190553004
 20
123.9759147427
 30
0.0
 11
42.612901079
 21
124.0605304906
 31
0.0
  0
ARC
  5
1D2
  8
DV2_0
  6
CONTINUOUS
 62
     7
 10
43.572901079
 20
124.7189748791
 30
0.0
 40
0.960000000000001
 50
0.0
 51
180.0
  0
LINE
  5
1D3
  8
DV2_0
  6
CONTINUOUS
 62
     7
 10
42.612901079
 20
124.2389748791
 30
0.0
 11
42.612901079
 21
124.7189748791
 31
0.0
  0
LINE
  5
1D4
  8
DV2_0
  6
CONTINUOUS
 62
     7
 10
44.532901079
 20
124.7189748791
 30
0.0
 11
44.532901079
 21
124.2389748791
 31
0.0
  0
LINE
  5
1D5
  8
DV2_0
  6
CONTINUOUS
 62
     7
 10
44.532901079
 20
124.2389748791
 30
0.0
 11
44.532901079
 21
124.0605304906
 31
0.0
  0
LINE
  5
1D6
  8
DV2_0
  6
CONTINUOUS
 62
     7
 10
42.612901079
 20
124.0605304906
 30
0.0
 11
42.612901079
 21
124.2389748791
 31
0.0
  0
ARC
  5
1D7
  8
DV2_0
  6
CONTINUOUS
 62
     7
 10
43.572901079
 20
134.1589748791
 30
0.0
 40
10.27199999999934
 50
323.9178670287
 51
336.0821329713
  0
LINE
  5
1D8
  8
DV2_0
  6
CONTINUOUS
 62
     7
 10
52.9386480681
 20
129.9865967113
 30
0.0
 11
52.962819499
 21
129.9944321594
 31
0.0
  0
LINE
  5
1D9
  8
DV2_0
  6
CONTINUOUS
 62
     7
 10
51.8744600794
 20
128.1093383477
 30
0.0
 11
51.8654842615
 21
128.1514242834
 31
0.0
  0
LINE
  5
1DA
  8
DV2_0
  6
CONTINUOUS
 62
     7
 10
51.8654842615
 20
128.1514242834
 30
0.0
 11
51.8647669561
 21
128.154787595
 31
0.0
  0
ARC
  5
1DB
  8
DV2_0
  6
CONTINUOUS
 62
     7
 10
43.572901079
 20
134.1589748791
 30
0.0
 40
10.24
 50
335.9213997247
 51
24.0786002753
  0
LINE
  5
1DC
  8
DV2_0
  6
CONTINUOUS
 62
     7
 10
52.9186127346
 20
129.9801020268
 30
0.0
 11
52.9218841007
 21
129.9811624779
 31
0.0
  0
LINE
  5
1DD
  8
DV2_0
  6
CONTINUOUS
 62
     7
 10
52.7984104581
 20
129.9411370725
 30
0.0
 11
52.9186127346
 21
129.9801020268
 31
0.0
  0
LINE
  5
1DE
  8
DV2_0
  6
CONTINUOUS
 62
     7
 10
51.8647669561
 20
128.154787595
 30
0.0
 11
51.8384104581
 21
128.2783682972
 31
0.0
  0
ARC
  5
1DF
  8
DV2_0
  6
CONTINUOUS
 62
     7
 10
51.7481808907
 20
129.4389748791
 30
0.0
 40
0.9600000000000013
 50
60.0000000014
 51
240.0000000014
  0
LINE
  5
1E0
  8
DV2_0
  6
CONTINUOUS
 62
     7
 10
51.6838730845
 20
128.3675904915
 30
0.0
 11
51.2681808907
 21
128.6075904915
 31
0.0
  0
LINE
  5
1E1
  8
DV2_0
  6
CONTINUOUS
 62
     7
 10
52.2281808907
 20
130.2703592668
 30
0.0
 11
52.6438730845
 21
130.0303592667
 31
0.0
  0
LINE
  5
1E2
  8
DV2_0
  6
CONTINUOUS
 62
     7
 10
52.6438730845
 20
130.0303592667
 30
0.0
 11
52.7984104581
 21
129.9411370725
 31
0.0
  0
LINE
  5
1E3
  8
DV2_0
  6
CONTINUOUS
 62
     7
 10
51.8384104581
 20
128.2783682972
 30
0.0
 11
51.6838730845
 21
128.3675904915
 31
0.0
  0
ARC
  5
1E4
  8
DV2_0
  6
CONTINUOUS
 62
     7
 10
43.572901079
 20
134.1589748791
 30
0.0
 40
10.27199999999934
 50
23.9178670287
 51
36.0821329713
  0
LINE
  5
1E5
  8
DV2_0
  6
CONTINUOUS
 62
     7
 10
51.8691600611
 20
140.1837606132
 30
0.0
 11
51.8744600794
 21
140.2086114105
 31
0.0
  0
LINE
  5
1E6
  8
DV2_0
  6
CONTINUOUS
 62
     7
 10
52.962819499
 20
138.3235175988
 30
0.0
 11
52.9218841007
 21
138.3367872804
 31
0.0
  0
LINE
  5
1E7
  8
DV2_0
  6
CONTINUOUS
 62
     7
 10
52.9218841007
 20
138.3367872804
 30
0.0
 11
52.9186127346
 21
138.3378477314
 31
0.0
  0
ARC
  5
1E8
  8
DV2_0
  6
CONTINUOUS
 62
     7
 10
43.572901079
 20
134.1589748791
 30
0.0
 40
10.24
 50
35.9213997247
 51
84.0786002753
  0
LINE
  5
1E9
  8
DV2_0
  6
CONTINUOUS
 62
     7
 10
51.8647669561
 20
140.1631621632
 30
0.0
 11
51.8654842615
 21
140.1665254748
 31
0.0
  0
LINE
  5
1EA
  8
DV2_0
  6
CONTINUOUS
 62
     7
 10
51.8384104581
 20
140.039581461
 30
0.0
 11
51.8647669561
 21
140.1631621632
 31
0.0
  0
LINE
  5
1EB
  8
DV2_0
  6
CONTINUOUS
 62
     7
 10
52.9186127346
 20
138.3378477314
 30
0.0
 11
52.7984104581
 21
138.3768126857
 31
0.0
  0
ARC
  5
1EC
  8
DV2_0
  6
CONTINUOUS
 62
     7
 10
51.7481808907
 20
138.8789748791
 30
0.0
 40
0.9599999999999985
 50
119.9999999986
 51
299.9999999986
  0
LINE
  5
1ED
  8
DV2_0
  6
CONTINUOUS
 62
     7
 10
52.6438730845
 20
138.2875904915
 30
0.0
 11
52.2281808907
 21
138.0475904915
 31
0.0
  0
LINE
  5
1EE
  8
DV2_0
  6
CONTINUOUS
 62
     7
 10
51.2681808907
 20
139.7103592668
 30
0.0
 11
51.6838730845
 21
139.9503592667
 31
0.0
  0
LINE
  5
1EF
  8
DV2_0
  6
CONTINUOUS
 62
     7
 10
51.6838730845
 20
139.9503592667
 30
0.0
 11
51.8384104581
 21
140.039581461
 31
0.0
  0
LINE
  5
1F0
  8
DV2_0
  6
CONTINUOUS
 62
     7
 10
52.7984104581
 20
138.3768126857
 30
0.0
 11
52.6438730845
 21
138.2875904915
 31
0.0
  0
CIRCLE
  5
1F1
  8
DV2_0
  6
CONTINUOUS
 62
     7
 10
43.572901079
 20
134.1589748791
 30
0.0
 40
1.28
  0
CIRCLE
  5
1F2
  8
DV2_0
  6
CONTINUOUS
 62
     7
 10
43.572901079
 20
134.1589748791
 30
0.0
 40
4.980512516844081
  0
ARC
  5
1F3
  8
DV2_0
  6
CONTINUOUS
 62
     7
 10
43.572901079
 20
134.1589748791
 30
0.0
 40
7.360000000000003
 50
236.9623889975
 51
243.0376110025
  0
ARC
  5
1F4
  8
DV2_0
  6
CONTINUOUS
 62
     7
 10
43.572901079
 20
134.1589748791
 30
0.0
 40
7.36
 50
296.9623889975
 51
303.0376110025
  0
ARC
  5
1F5
  8
DV2_0
  6
CONTINUOUS
 62
     7
 10
43.572901079
 20
134.1589748791
 30
0.0
 40
7.360000000000001
 50
356.9623889975
 51
3.0376110025
  0
ARC
  5
1F6
  8
DV2_0
  6
CONTINUOUS
 62
     7
 10
43.572901079
 20
134.1589748791
 30
0.0
 40
7.360000000000001
 50
56.9623889975
 51
63.0376110025
  0
ARC
  5
1F7
  8
DV2_0
  6
CONTINUOUS
 62
     7
 10
43.572901079
 20
134.1589748791
 30
0.0
 40
7.360000000000003
 50
116.9623889975
 51
123.0376110025
  0
ARC
  5
1F8
  8
DV2_0
  6
CONTINUOUS
 62
     7
 10
43.572901079
 20
134.1589748791
 30
0.0
 40
7.360000000000003
 50
176.9623889975
 51
183.0376110025
  0
LINE
  5
1F9
  8
DV2_0
  6
CONTINUOUS
 62
     7
 10
47.5854954386
 20
140.328957578
 30
0.0
 11
50.922560017
 21
134.5489921802
 31
0.0
  0
LINE
  5
1FA
  8
DV2_0
  6
CONTINUOUS
 62
     7
 10
50.922560017
 20
133.768957578
 30
0.0
 11
47.5854954386
 21
127.9889921802
 31
0.0
  0
LINE
  5
1FB
  8
DV2_0
  6
CONTINUOUS
 62
     7
 10
46.9099656573
 20
127.5989748791
 30
0.0
 11
40.2358365006
 21
127.5989748791
 31
0.0
  0
LINE
  5
1FC
  8
DV2_0
  6
CONTINUOUS
 62
     7
 10
39.5603067193
 20
127.9889921802
 30
0.0
 11
36.223242141
 21
133.768957578
 31
0.0
  0
LINE
  5
1FD
  8
DV2_0
  6
CONTINUOUS
 62
     7
 10
36.223242141
 20
134.5489921802
 30
0.0
 11
39.5603067193
 21
140.328957578
 31
0.0
  0
LINE
  5
1FE
  8
DV2_0
  6
CONTINUOUS
 62
     7
 10
40.2358365006
 20
140.7189748791
 30
0.0
 11
46.9099656573
 21
140.7189748791
 31
0.0
  0
ARC
  5
1FF
  8
DV2_0
  6
CONTINUOUS
 62
     7
 10
80.052901079
 20
134.1589748791
 30
0.0
 40
4.4
 50
0.0
 51
49.1148071073
  0
ARC
  5
200
  8
DV2_0
  6
CONTINUOUS
 62
     7
 10
80.052901079
 20
134.1589748791
 30
0.0
 40
4.4
 50
130.8851928927
 51
229.1148071073
  0
ARC
  5
201
  8
DV2_0
  6
CONTINUOUS
 62
     7
 10
80.052901079
 20
134.1589748791
 30
0.0
 40
4.4
 50
310.8851928927
 51
0.0
  0
LINE
  5
202
  8
DV2_0
  6
CONTINUOUS
 62
     7
 10
77.172901079
 20
139.2789748791
 30
0.0
 11
77.172901079
 21
129.0389748791
 31
0.0
  0
ARC
  5
203
  8
DV2_0
  6
CONTINUOUS
 62
     7
 10
80.052901079
 20
129.0389748791
 30
0.0
 40
2.879999999999996
 50
180.0
 51
0.0
  0
LINE
  5
204
  8
DV2_0
  6
CONTINUOUS
 62
     7
 10
82.932901079
 20
129.0389748791
 30
0.0
 11
82.932901079
 21
139.2789748791
 31
0.0
  0
ARC
  5
205
  8
DV2_0
  6
CONTINUOUS
 62
     7
 10
80.052901079
 20
139.2789748791
 30
0.0
 40
2.880000000000003
 50
0.0
 51
180.0
  0
CIRCLE
  5
206
  8
DV2_0
  6
CONTINUOUS
 62
     7
 10
80.052901079
 20
134.1589748791
 30
0.0
 40
1.440000000000001
  0
CIRCLE
  5
207
  8
DV2_0
  6
CONTINUOUS
 62
     7
 10
80.052901079
 20
128.3989748791
 30
0.0
 40
2.08
  0
CIRCLE
  5
208
  8
DV2_0
  6
CONTINUOUS
 62
     7
 10
80.052901079
 20
139.9189748791
 30
0.0
 40
2.08
  0
CIRCLE
  5
209
  8
DV2_0
  6
HIDDEN2
 62
     1
 10
59.572901079
 20
134.1589748791
 30
0.0
 40
3.136000000000004
  0
LINE
  5
20A
  8
DV2_0
  6
HIDDEN2
 62
     1
 10
61.484901079
 20
132.1134294751
 30
0.0
 11
61.484901079
 21
136.2045202832
 31
0.0
  0
LINE
  5
20B
  8
DV2_0
  6
HIDDEN2
 62
     1
 10
57.660901079
 20
132.1134294751
 30
0.0
 11
57.660901079
 21
136.2045202832
 31
0.0
  0
LINE
  5
20D
  8
DV2_DEFAULT
  6
CENTER2
 62
     1
 10
44.3729010611
 20
134.1589748791
 30
0.0
 11
42.7729010969
 21
134.1589748791
 31
0.0
  0
LINE
  5
20E
  8
DV2_DEFAULT
  6
CENTER2
 62
     1
 10
43.572901079
 20
134.9589748612
 30
0.0
 11
43.572901079
 21
133.358974897
 31
0.0
  0
LINE
  5
20F
  8
DV2_DEFAULT
  6
CENTER2
 62
     1
 10
44.7729010521
 20
134.1589748791
 30
0.0
 11
55.332901079
 21
134.1589748791
 31
0.0
  0
LINE
  5
210
  8
DV2_DEFAULT
  6
CENTER2
 62
     1
 10
43.572901079
 20
135.3589748523
 30
0.0
 11
43.572901079
 21
145.9189748791
 31
0.0
  0
LINE
  5
211
  8
DV2_DEFAULT
  6
CENTER2
 62
     1
 10
42.3729011058
 20
134.1589748791
 30
0.0
 11
31.812901079
 21
134.1589748791
 31
0.0
  0
LINE
  5
212
  8
DV2_DEFAULT
  6
CENTER2
 62
     1
 10
43.572901079
 20
132.9589749059
 30
0.0
 11
43.572901079
 21
122.3989748791
 31
0.0
  0
LINE
  5
213
  8
DV2_DEFAULT
  6
CENTER2
 62
     1
 10
52.4503796174
 20
144.4976759664
 30
0.0
 11
50.8503796531
 21
144.4976759664
 31
0.0
  0
LINE
  5
214
  8
DV2_DEFAULT
  6
CENTER2
 62
     1
 10
51.6503796352
 20
145.2976759485
 30
0.0
 11
51.6503796352
 21
143.6976759843
 31
0.0
  0
LINE
  5
215
  8
DV2_DEFAULT
  6
CENTER2
 62
     1
 10
52.8503796084
 20
144.4976759664
 30
0.0
 11
53.4903796352
 21
144.4976759664
 31
0.0
  0
LINE
  5
216
  8
DV2_DEFAULT
  6
CENTER2
 62
     1
 10
51.6503796352
 20
145.6976759396
 30
0.0
 11
51.6503796352
 21
146.3376759664
 31
0.0
  0
LINE
  5
217
  8
DV2_DEFAULT
  6
CENTER2
 62
     1
 10
50.4503796621
 20
144.4976759664
 30
0.0
 11
49.8103796352
 21
144.4976759664
 31
0.0
  0
LINE
  5
218
  8
DV2_DEFAULT
  6
CENTER2
 62
     1
 10
51.6503796352
 20
143.2976759933
 30
0.0
 11
51.6503796352
 21
142.6576759664
 31
0.0
  0
LINE
  5
219
  8
DV2_DEFAULT
  6
CENTER2
 62
     1
 10
80.8529010611
 20
139.9189748791
 30
0.0
 11
79.2529010969
 21
139.9189748791
 31
0.0
  0
LINE
  5
21A
  8
DV2_DEFAULT
  6
CENTER2
 62
     1
 10
80.052901079
 20
140.7189748612
 30
0.0
 11
80.052901079
 21
139.118974897
 31
0.0
  0
LINE
  5
21B
  8
DV2_DEFAULT
  6
CENTER2
 62
     1
 10
81.2529010521
 20
139.9189748791
 30
0.0
 11
82.692901079
 21
139.9189748791
 31
0.0
  0
LINE
  5
21C
  8
DV2_DEFAULT
  6
CENTER2
 62
     1
 10
80.052901079
 20
141.1189748523
 30
0.0
 11
80.052901079
 21
142.5589748791
 31
0.0
  0
LINE
  5
21D
  8
DV2_DEFAULT
  6
CENTER2
 62
     1
 10
78.8529011058
 20
139.9189748791
 30
0.0
 11
77.412901079
 21
139.9189748791
 31
0.0
  0
LINE
  5
21E
  8
DV2_DEFAULT
  6
CENTER2
 62
     1
 10
80.052901079
 20
138.7189749059
 30
0.0
 11
80.052901079
 21
137.2789748791
 31
0.0
  0
LINE
  5
21F
  8
DV2_DEFAULT
  6
CENTER2
 62
     1
 10
80.8529010611
 20
134.1589748791
 30
0.0
 11
79.2529010969
 21
134.1589748791
 31
0.0
  0
LINE
  5
220
  8
DV2_DEFAULT
  6
CENTER2
 62
     1
 10
80.052901079
 20
134.9589748612
 30
0.0
 11
80.052901079
 21
133.358974897
 31
0.0
  0
LINE
  5
221
  8
DV2_DEFAULT
  6
CENTER2
 62
     1
 10
81.2529010521
 20
134.1589748791
 30
0.0
 11
85.012901079
 21
134.1589748791
 31
0.0
  0
LINE
  5
222
  8
DV2_DEFAULT
  6
CENTER2
 62
     1
 10
80.052901079
 20
135.3589748523
 30
0.0
 11
80.052901079
 21
139.1189748791
 31
0.0
  0
LINE
  5
223
  8
DV2_DEFAULT
  6
CENTER2
 62
     1
 10
78.8529011058
 20
134.1589748791
 30
0.0
 11
75.092901079
 21
134.1589748791
 31
0.0
  0
LINE
  5
224
  8
DV2_DEFAULT
  6
CENTER2
 62
     1
 10
80.052901079
 20
132.9589749059
 30
0.0
 11
80.052901079
 21
129.1989748791
 31
0.0
  0
LINE
  5
225
  8
DV2_DEFAULT
  6
CENTER2
 62
     1
 10
80.8529010611
 20
128.3989748791
 30
0.0
 11
79.2529010969
 21
128.3989748791
 31
0.0
  0
LINE
  5
226
  8
DV2_DEFAULT
  6
CENTER2
 62
     1
 10
80.052901079
 20
129.1989748612
 30
0.0
 11
80.052901079
 21
127.598974897
 31
0.0
  0
LINE
  5
227
  8
DV2_DEFAULT
  6
CENTER2
 62
     1
 10
81.2529010521
 20
128.3989748791
 30
0.0
 11
82.692901079
 21
128.3989748791
 31
0.0
  0
LINE
  5
228
  8
DV2_DEFAULT
  6
CENTER2
 62
     1
 10
80.052901079
 20
129.5989748523
 30
0.0
 11
80.052901079
 21
131.0389748791
 31
0.0
  0
LINE
  5
229
  8
DV2_DEFAULT
  6
CENTER2
 62
     1
 10
78.8529011058
 20
128.3989748791
 30
0.0
 11
77.412901079
 21
128.3989748791
 31
0.0
  0
LINE
  5
22A
  8
DV2_DEFAULT
  6
CENTER2
 62
     1
 10
80.052901079
 20
127.1989749059
 30
0.0
 11
80.052901079
 21
125.7589748791
 31
0.0
  0
LINE
  5
22B
  8
DV2_DEFAULT
  6
CENTER2
 62
     1
 10
55.092901079
 20
121.806975337
 30
0.0
 11
55.092901079
 21
119.726975337
 31
0.0
  0
LINE
  5
22C
  8
DV2_DEFAULT
  6
CENTER2
 62
     1
 10
81.1729010611
 20
145.0389748791
 30
0.0
 11
79.5729010969
 21
145.0389748791
 31
0.0
  0
LINE
  5
22D
  8
DV2_DEFAULT
  6
CENTER2
 62
     1
 10
80.372901079
 20
145.8389748612
 30
0.0
 11
80.372901079
 21
144.238974897
 31
0.0
  0
LINE
  5
22E
  8
DV2_DEFAULT
  6
CENTER2
 62
     1
 10
81.5729010521
 20
145.0389748791
 30
0.0
 11
83.012901079
 21
145.0389748791
 31
0.0
  0
LINE
  5
22F
  8
DV2_DEFAULT
  6
CENTER2
 62
     1
 10
80.372901079
 20
146.2389748523
 30
0.0
 11
80.372901079
 21
147.6789748791
 31
0.0
  0
LINE
  5
230
  8
DV2_DEFAULT
  6
CENTER2
 62
     1
 10
79.1729011058
 20
145.0389748791
 30
0.0
 11
77.732901079
 21
145.0389748791
 31
0.0
  0
LINE
  5
231
  8
DV2_DEFAULT
  6
CENTER2
 62
     1
 10
80.372901079
 20
143.8389749059
 30
0.0
 11
80.372901079
 21
142.3989748791
 31
0.0
  0
LINE
  5
232
  8
DV2_DEFAULT
  6
CENTER2
 62
     1
 10
81.1729010611
 20
123.2789748791
 30
0.0
 11
79.5729010969
 21
123.2789748791
 31
0.0
  0
LINE
  5
233
  8
DV2_DEFAULT
  6
CENTER2
 62
     1
 10
80.372901079
 20
124.0789748612
 30
0.0
 11
80.372901079
 21
122.478974897
 31
0.0
  0
LINE
  5
234
  8
DV2_DEFAULT
  6
CENTER2
 62
     1
 10
81.5729010521
 20
123.2789748791
 30
0.0
 11
83.012901079
 21
123.2789748791
 31
0.0
  0
LINE
  5
235
  8
DV2_DEFAULT
  6
CENTER2
 62
     1
 10
80.372901079
 20
124.4789748523
 30
0.0
 11
80.372901079
 21
125.9189748791
 31
0.0
  0
LINE
  5
236
  8
DV2_DEFAULT
  6
CENTER2
 62
     1
 10
79.1729011058
 20
123.2789748791
 30
0.0
 11
77.732901079
 21
123.2789748791
 31
0.0
  0
LINE
  5
237
  8
DV2_DEFAULT
  6
CENTER2
 62
     1
 10
80.372901079
 20
122.0789749059
 30
0.0
 11
80.372901079
 21
120.6389748791
 31
0.0
  0
LINE
  5
238
  8
DV2_DEFAULT
  6
CENTER2
 62
     1
 10
45.9729010611
 20
145.0389748791
 30
0.0
 11
44.3729010969
 21
145.0389748791
 31
0.0
  0
LINE
  5
239
  8
DV2_DEFAULT
  6
CENTER2
 62
     1
 10
45.172901079
 20
145.8389748612
 30
0.0
 11
45.172901079
 21
144.238974897
 31
0.0
  0
LINE
  5
23A
  8
DV2_DEFAULT
  6
CENTER2
 62
     1
 10
46.3729010521
 20
145.0389748791
 30
0.0
 11
47.812901079
 21
145.0389748791
 31
0.0
  0
LINE
  5
23B
  8
DV2_DEFAULT
  6
CENTER2
 62
     1
 10
45.172901079
 20
146.2389748523
 30
0.0
 11
45.172901079
 21
147.6789748791
 31
0.0
  0
LINE
  5
23C
  8
DV2_DEFAULT
  6
CENTER2
 62
     1
 10
43.9729011058
 20
145.0389748791
 30
0.0
 11
42.532901079
 21
145.0389748791
 31
0.0
  0
LINE
  5
23D
  8
DV2_DEFAULT
  6
CENTER2
 62
     1
 10
45.172901079
 20
143.8389749059
 30
0.0
 11
45.172901079
 21
142.3989748791
 31
0.0
  0
LINE
  5
23E
  8
DV2_DEFAULT
  6
CENTER2
 62
     1
 10
45.9729010611
 20
123.2789748791
 30
0.0
 11
44.3729010969
 21
123.2789748791
 31
0.0
  0
LINE
  5
23F
  8
DV2_DEFAULT
  6
CENTER2
 62
     1
 10
45.172901079
 20
124.0789748612
 30
0.0
 11
45.172901079
 21
122.478974897
 31
0.0
  0
LINE
  5
240
  8
DV2_DEFAULT
  6
CENTER2
 62
     1
 10
46.3729010521
 20
123.2789748791
 30
0.0
 11
47.812901079
 21
123.2789748791
 31
0.0
  0
LINE
  5
241
  8
DV2_DEFAULT
  6
CENTER2
 62
     1
 10
45.172901079
 20
124.4789748523
 30
0.0
 11
45.172901079
 21
125.9189748791
 31
0.0
  0
LINE
  5
242
  8
DV2_DEFAULT
  6
CENTER2
 62
     1
 10
43.9729011058
 20
123.2789748791
 30
0.0
 11
42.532901079
 21
123.2789748791
 31
0.0
  0
LINE
  5
243
  8
DV2_DEFAULT
  6
CENTER2
 62
     1
 10
45.172901079
 20
122.0789749059
 30
0.0
 11
45.172901079
 21
120.6389748791
 31
0.0
  0
LINE
  5
244
  8
DV2_DEFAULT
  6
CENTER2
 62
     1
 10
74.7729010611
 20
143.7589748791
 30
0.0
 11
73.1729010969
 21
143.7589748791
 31
0.0
  0
LINE
  5
245
  8
DV2_DEFAULT
  6
CENTER2
 62
     1
 10
73.972901079
 20
144.5589748612
 30
0.0
 11
73.972901079
 21
142.958974897
 31
0.0
  0
LINE
  5
246
  8
DV2_DEFAULT
  6
CENTER2
 62
     1
 10
75.1729010521
 20
143.7589748791
 30
0.0
 11
76.772901079
 21
143.7589748791
 31
0.0
  0
LINE
  5
247
  8
DV2_DEFAULT
  6
CENTER2
 62
     1
 10
73.972901079
 20
144.9589748523
 30
0.0
 11
73.972901079
 21
146.5589748791
 31
0.0
  0
LINE
  5
248
  8
DV2_DEFAULT
  6
CENTER2
 62
     1
 10
72.7729011058
 20
143.7589748791
 30
0.0
 11
71.172901079
 21
143.7589748791
 31
0.0
  0
LINE
  5
249
  8
DV2_DEFAULT
  6
CENTER2
 62
     1
 10
73.972901079
 20
142.5589749059
 30
0.0
 11
73.972901079
 21
140.9589748791
 31
0.0
  0
LINE
  5
24A
  8
DV2_DEFAULT
  6
CENTER2
 62
     1
 10
60.3729010611
 20
134.1589748791
 30
0.0
 11
58.7729010969
 21
134.1589748791
 31
0.0
  0
LINE
  5
24B
  8
DV2_DEFAULT
  6
CENTER2
 62
     1
 10
59.572901079
 20
134.9589748612
 30
0.0
 11
59.572901079
 21
133.358974897
 31
0.0
  0
LINE
  5
24C
  8
DV2_DEFAULT
  6
CENTER2
 62
     1
 10
60.7729010521
 20
134.1589748791
 30
0.0
 11
70.948901079
 21
134.1589748791
 31
0.0
  0
LINE
  5
24D
  8
DV2_DEFAULT
  6
CENTER2
 62
     1
 10
59.572901079
 20
135.3589748523
 30
0.0
 11
59.572901079
 21
145.5349748791
 31
0.0
  0
LINE
  5
24E
  8
DV2_DEFAULT
  6
CENTER2
 62
     1
 10
58.3729011058
 20
134.1589748791
 30
0.0
 11
48.196901079
 21
134.1589748791
 31
0.0
  0
LINE
  5
24F
  8
DV2_DEFAULT
  6
CENTER2
 62
     1
 10
59.572901079
 20
132.9589749059
 30
0.0
 11
59.572901079
 21
122.7829748791
 31
0.0
  0
LINE
  5
250
  8
DV2_DEFAULT
  6
DASHDOT2
 62
     1
 10
57.6529010611
 20
125.1989748791
 30
0.0
 11
56.0529010969
 21
125.1989748791
 31
0.0
  0
LINE
  5
251
  8
DV2_DEFAULT
  6
DASHDOT2
 62
     1
 10
56.852901079
 20
125.9989748612
 30
0.0
 11
56.852901079
 21
124.398974897
 31
0.0
  0
LINE
  5
252
  8
DV2_DEFAULT
  6
DASHDOT2
 62
     1
 10
58.0529010521
 20
125.1989748791
 30
0.0
 11
59.332901079
 21
125.1989748791
 31
0.0
  0
LINE
  5
253
  8
DV2_DEFAULT
  6
DASHDOT2
 62
     1
 10
56.852901079
 20
126.3989748523
 30
0.0
 11
56.852901079
 21
127.6789748791
 31
0.0
  0
LINE
  5
254
  8
DV2_DEFAULT
  6
DASHDOT2
 62
     1
 10
55.6529011058
 20
125.1989748791
 30
0.0
 11
54.372901079
 21
125.1989748791
 31
0.0
  0
LINE
  5
255
  8
DV2_DEFAULT
  6
DASHDOT2
 62
     1
 10
56.852901079
 20
123.9989749059
 30
0.0
 11
56.852901079
 21
122.7189748791
 31
0.0
  0
LINE
  5
257
  8
DV3_0
  6
CONTINUOUS
 62
     7
 10
132.0633310224
 20
48.7069749649
 30
0.0
 11
128.8633310224
 21
48.7069749649
 31
0.0
  0
LINE
  5
258
  8
DV3_0
  6
CONTINUOUS
 62
     7
 10
151.2633310224
 20
48.7069749649
 30
0.0
 11
132.0633310224
 21
48.7069749649
 31
0.0
  0
LINE
  5
259
  8
DV3_0
  6
CONTINUOUS
 62
     7
 10
154.4633310224
 20
48.7069749649
 30
0.0
 11
151.2633310224
 21
48.7069749649
 31
0.0
  0
LINE
  5
25A
  8
DV3_0
  6
CONTINUOUS
 62
     7
 10
151.1970568524
 20
37.5069749649
 30
0.0
 11
132.1296051924
 21
37.5069749649
 31
0.0
  0
LINE
  5
25B
  8
DV3_0
  6
CONTINUOUS
 62
     7
 10
132.1296051924
 20
37.5069749649
 30
0.0
 11
129.0233310224
 21
37.5069749649
 31
0.0
  0
LINE
  5
25C
  8
DV3_0
  6
CONTINUOUS
 62
     7
 10
154.3033310224
 20
37.5069749649
 30
0.0
 11
151.1970568524
 21
37.5069749649
 31
0.0
  0
LINE
  5
25D
  8
DV3_0
  6
CONTINUOUS
 62
     7
 10
128.8633310224
 20
37.6669749649
 30
0.0
 11
128.8633310224
 21
48.7069749649
 31
0.0
  0
LINE
  5
25E
  8
DV3_0
  6
CONTINUOUS
 62
     7
 10
154.4633310224
 20
37.6669749649
 30
0.0
 11
154.4633310224
 21
48.7069749649
 31
0.0
  0
LINE
  5
25F
  8
DV3_0
  6
CONTINUOUS
 62
     7
 10
151.2633310224
 20
37.6669749649
 30
0.0
 11
151.2633310224
 21
48.7069749649
 31
0.0
  0
LINE
  5
260
  8
DV3_0
  6
CONTINUOUS
 62
     7
 10
132.0633310224
 20
37.6669749649
 30
0.0
 11
132.0633310224
 21
48.7069749649
 31
0.0
  0
LINE
  5
261
  8
DV3_0
  6
CONTINUOUS
 62
     7
 10
154.3033310224
 20
37.5069749649
 30
0.0
 11
154.4633310224
 21
37.6669749649
 31
0.0
  0
LINE
  5
262
  8
DV3_0
  6
CONTINUOUS
 62
     7
 10
151.1970568524
 20
37.5069749649
 30
0.0
 11
151.2633310224
 21
37.6669749649
 31
0.0
  0
LINE
  5
263
  8
DV3_0
  6
CONTINUOUS
 62
     7
 10
132.1296051924
 20
37.5069749649
 30
0.0
 11
132.0633310224
 21
37.6669749649
 31
0.0
  0
LINE
  5
264
  8
DV3_0
  6
CONTINUOUS
 62
     7
 10
129.0233310224
 20
37.5069749649
 30
0.0
 11
128.8633310224
 21
37.6669749649
 31
0.0
  0
LINE
  5
265
  8
DV3_0
  6
CONTINUOUS
 62
     7
 10
151.2633310224
 20
48.7069749649
 30
0.0
 11
132.0633310224
 21
48.7069749649
 31
0.0
  0
LINE
  5
266
  8
DV3_0
  6
CONTINUOUS
 62
     7
 10
132.0633310224
 20
61.5069749649
 30
0.0
 11
132.3833310224
 21
61.5069749649
 31
0.0
  0
LINE
  5
267
  8
DV3_0
  6
CONTINUOUS
 62
     7
 10
136.5433310224
 20
61.5069749649
 30
0.0
 11
146.7833310224
 21
61.5069749649
 31
0.0
  0
LINE
  5
268
  8
DV3_0
  6
CONTINUOUS
 62
     7
 10
150.9433310224
 20
61.5069749649
 30
0.0
 11
151.2633310224
 21
61.5069749649
 31
0.0
  0
LINE
  5
269
  8
DV3_0
  6
CONTINUOUS
 62
     7
 10
132.0633310224
 20
62.8189749649
 30
0.0
 11
151.2633310224
 21
62.8189749649
 31
0.0
  0
LINE
  5
26A
  8
DV3_0
  6
CONTINUOUS
 62
     7
 10
130.7833310224
 20
66.6170265127
 30
0.0
 11
152.5433310224
 21
66.6170265127
 31
0.0
  0
LINE
  5
26B
  8
DV3_0
  6
CONTINUOUS
 62
     7
 10
131.3433310224
 20
67.5869749649
 30
0.0
 11
151.9833310224
 21
67.5869749649
 31
0.0
  0
LINE
  5
26C
  8
DV3_0
  6
CONTINUOUS
 62
     7
 10
131.5280831086
 20
69.5069749649
 30
0.0
 11
151.7985789363
 21
69.5069749649
 31
0.0
  0
LINE
  5
26D
  8
DV3_0
  6
CONTINUOUS
 62
     7
 10
135.4480831086
 20
85.5069749649
 30
0.0
 11
147.8785789363
 21
85.5069749649
 31
0.0
  0
LINE
  5
26E
  8
DV3_0
  6
CONTINUOUS
 62
     7
 10
151.2633310224
 20
48.7069749649
 30
0.0
 11
154.4633310224
 21
48.7069749649
 31
0.0
  0
LINE
  5
26F
  8
DV3_0
  6
CONTINUOUS
 62
     7
 10
128.8633310224
 20
48.7069749649
 30
0.0
 11
132.0633310224
 21
48.7069749649
 31
0.0
  0
LINE
  5
270
  8
DV3_0
  6
CONTINUOUS
 62
     7
 10
128.2233310224
 20
49.3469749649
 30
0.0
 11
128.8633310224
 21
48.7069749649
 31
0.0
  0
LINE
  5
271
  8
DV3_0
  6
CONTINUOUS
 62
     7
 10
154.4633310224
 20
48.7069749649
 30
0.0
 11
155.1033310224
 21
49.3469749649
 31
0.0
  0
LINE
  5
272
  8
DV3_0
  6
CONTINUOUS
 62
     7
 10
128.2233310224
 20
54.6109749649
 30
0.0
 11
128.2233310224
 21
49.3469749649
 31
0.0
  0
LINE
  5
273
  8
DV3_0
  6
CONTINUOUS
 62
     7
 10
155.1033310224
 20
54.6109749649
 30
0.0
 11
155.1033310224
 21
49.3469749649
 31
0.0
  0
LINE
  5
274
  8
DV3_0
  6
CONTINUOUS
 62
     7
 10
151.1970568524
 20
54.7709749649
 30
0.0
 11
153.1833310224
 21
54.7709749649
 31
0.0
  0
LINE
  5
275
  8
DV3_0
  6
CONTINUOUS
 62
     7
 10
132.1296051924
 20
54.7709749649
 30
0.0
 11
151.1970568524
 21
54.7709749649
 31
0.0
  0
LINE
  5
276
  8
DV3_0
  6
CONTINUOUS
 62
     7
 10
130.1433310224
 20
54.7709749649
 30
0.0
 11
132.1296051924
 21
54.7709749649
 31
0.0
  0
LINE
  5
277
  8
DV3_0
  6
CONTINUOUS
 62
     7
 10
128.3833310224
 20
54.7709749649
 30
0.0
 11
128.2233310224
 21
54.6109749649
 31
0.0
  0
LINE
  5
278
  8
DV3_0
  6
CONTINUOUS
 62
     7
 10
154.9433310224
 20
54.7709749649
 30
0.0
 11
155.1033310224
 21
54.6109749649
 31
0.0
  0
LINE
  5
279
  8
DV3_0
  6
CONTINUOUS
 62
     7
 10
152.5433310224
 20
63.0909749649
 30
0.0
 11
152.5433310224
 21
66.6170265127
 31
0.0
  0
LINE
  5
27A
  8
DV3_0
  6
CONTINUOUS
 62
     7
 10
130.7833310224
 20
66.6170265127
 30
0.0
 11
130.7833310224
 21
63.0909749649
 31
0.0
  0
LINE
  5
27B
  8
DV3_0
  6
CONTINUOUS
 62
     7
 10
152.5433310224
 20
66.6170265127
 30
0.0
 11
151.9833310224
 21
67.5869749649
 31
0.0
  0
LINE
  5
27C
  8
DV3_0
  6
CONTINUOUS
 62
     7
 10
131.3433310224
 20
67.5869749649
 30
0.0
 11
130.7833310224
 21
66.6170265127
 31
0.0
  0
LINE
  5
27D
  8
DV3_0
  6
CONTINUOUS
 62
     7
 10
151.9833310224
 20
67.5869749649
 30
0.0
 11
151.9833310224
 21
69.1869749649
 31
0.0
  0
LINE
  5
27E
  8
DV3_0
  6
CONTINUOUS
 62
     7
 10
131.3433310224
 20
69.1869749649
 30
0.0
 11
131.3433310224
 21
67.5869749649
 31
0.0
  0
LINE
  5
27F
  8
DV3_0
  6
CONTINUOUS
 62
     7
 10
151.9833310224
 20
69.1869749649
 30
0.0
 11
151.7985789363
 21
69.5069749649
 31
0.0
  0
LINE
  5
280
  8
DV3_0
  6
CONTINUOUS
 62
     7
 10
131.5280831086
 20
69.5069749649
 30
0.0
 11
131.3433310224
 21
69.1869749649
 31
0.0
  0
ARC
  5
281
  8
DV3_0
  6
CONTINUOUS
 62
     7
 10
148.7033310224
 20
70.1469749649
 30
0.0
 40
0.6400000000000007
 50
180.0
 51
270.0
  0
ARC
  5
282
  8
DV3_0
  6
CONTINUOUS
 62
     7
 10
134.6233310224
 20
70.1469749649
 30
0.0
 40
0.6400000000000007
 50
270.0
 51
0.0
  0
LINE
  5
283
  8
DV3_0
  6
CONTINUOUS
 62
     7
 10
148.0633310224
 20
70.1469749649
 30
0.0
 11
148.0633310224
 21
85.1869749649
 31
0.0
  0
LINE
  5
284
  8
DV3_0
  6
CONTINUOUS
 62
     7
 10
135.2633310224
 20
85.1869749649
 30
0.0
 11
135.2633310224
 21
70.1469749649
 31
0.0
  0
LINE
  5
285
  8
DV3_0
  6
CONTINUOUS
 62
     7
 10
148.0633310224
 20
85.1869749649
 30
0.0
 11
147.8785789363
 21
85.5069749649
 31
0.0
  0
LINE
  5
286
  8
DV3_0
  6
CONTINUOUS
 62
     7
 10
135.4480831086
 20
85.5069749649
 30
0.0
 11
135.2633310224
 21
85.1869749649
 31
0.0
  0
LINE
  5
287
  8
DV3_0
  6
CONTINUOUS
 62
     7
 10
153.8233310224
 20
59.9069749649
 30
0.0
 11
153.8233310224
 21
62.8615349649
 31
0.0
  0
LINE
  5
288
  8
DV3_0
  6
CONTINUOUS
 62
     7
 10
131.5833310224
 20
28.0989749649
 30
0.0
 11
131.9570071863
 21
28.0989749649
 31
0.0
  0
POLYLINE
  5
289
  8
DV3_0
  6
CONTINUOUS
 62
     7
 66
     1
 10
0.0
 20
0.0
 30
0.0
  0
VERTEX
  5
5B2
  8
DV3_0
  6
CONTINUOUS
 62
     7
 10
133.6553468936
 20
28.0989749649
 30
0.0
  0
VERTEX
  5
5B3
  8
DV3_0
  6
CONTINUOUS
 62
     7
 10
133.7407682055
 20
28.2825195908
 30
0.0
  0
VERTEX
  5
5B4
  8
DV3_0
  6
CONTINUOUS
 62
     7
 10
133.7988064077
 20
28.4645711806
 30
0.0
  0
VERTEX
  5
5B5
  8
DV3_0
  6
CONTINUOUS
 62
     7
 10
133.8229247677
 20
28.6355292588
 30
0.0
  0
VERTEX
  5
5B6
  8
DV3_0
  6
CONTINUOUS
 62
     7
 10
133.8092140574
 20
28.7856153845
 30
0.0
  0
VERTEX
  5
5B7
  8
DV3_0
  6
CONTINUOUS
 62
     7
 10
133.7574053669
 20
28.9065345107
 30
0.0
  0
VERTEX
  5
5B8
  8
DV3_0
  6
CONTINUOUS
 62
     7
 10
133.6710680722
 20
28.9929301
 30
0.0
  0
VERTEX
  5
5B9
  8
DV3_0
  6
CONTINUOUS
 62
     7
 10
133.5568800032
 20
29.0431289369
 30
0.0
  0
VERTEX
  5
5BA
  8
DV3_0
  6
CONTINUOUS
 62
     7
 10
133.4232531453
 20
29.0589749649
 30
0.0
  0
VERTEX
  5
5BB
  8
DV3_0
  6
CONTINUOUS
 62
     7
 10
133.2692550263
 20
29.0431289369
 30
0.0
  0
VERTEX
  5
5BC
  8
DV3_0
  6
CONTINUOUS
 62
     7
 10
133.0905325766
 20
28.9929301
 30
0.0
  0
VERTEX
  5
5BD
  8
DV3_0
  6
CONTINUOUS
 62
     7
 10
132.8931272532
 20
28.9065345107
 30
0.0
  0
VERTEX
  5
5BE
  8
DV3_0
  6
CONTINUOUS
 62
     7
 10
132.6858679305
 20
28.7856153845
 30
0.0
  0
VERTEX
  5
5BF
  8
DV3_0
  6
CONTINUOUS
 62
     7
 10
132.4792102162
 20
28.6355292588
 30
0.0
  0
VERTEX
  5
5C0
  8
DV3_0
  6
CONTINUOUS
 62
     7
 10
132.2835491074
 20
28.4645711806
 30
0.0
  0
VERTEX
  5
5C1
  8
DV3_0
  6
CONTINUOUS
 62
     7
 10
132.1075462972
 20
28.2825195908
 30
0.0
  0
VERTEX
  5
5C2
  8
DV3_0
  6
CONTINUOUS
 62
     7
 10
131.9570071863
 20
28.0989749649
 30
0.0
  0
SEQEND
  5
7AF
  8
DV3_0
  6
CONTINUOUS
 62
     7
  0
LINE
  5
28A
  8
DV3_0
  6
CONTINUOUS
 62
     7
 10
131.9570071863
 20
28.0989749649
 30
0.0
 11
133.6553468936
 21
28.0989749649
 31
0.0
  0
LINE
  5
28B
  8
DV3_0
  6
CONTINUOUS
 62
     7
 10
131.5833310224
 20
30.886725198
 30
0.0
 11
131.5833310224
 21
28.0989749649
 31
0.0
  0
LINE
  5
28C
  8
DV3_0
  6
CONTINUOUS
 62
     7
 10
133.8233310224
 20
28.6588970878
 30
0.0
 11
133.8233310224
 21
30.7869749649
 31
0.0
  0
LINE
  5
28D
  8
DV3_0
  6
CONTINUOUS
 62
     7
 10
155.1033310224
 20
54.7709749649
 30
0.0
 11
155.1033310224
 21
59.8909749649
 31
0.0
  0
LINE
  5
28E
  8
DV3_0
  6
CONTINUOUS
 62
     7
 10
128.2233310224
 20
54.7709749649
 30
0.0
 11
128.2233310224
 21
59.8909749649
 31
0.0
  0
LINE
  5
28F
  8
DV3_0
  6
CONTINUOUS
 62
     7
 10
130.1433310224
 20
59.8909749649
 30
0.0
 11
153.1833310224
 21
59.8909749649
 31
0.0
  0
LINE
  5
290
  8
DV3_0
  6
CONTINUOUS
 62
     7
 10
130.1433310224
 20
54.7709749649
 30
0.0
 11
130.3696051924
 21
54.7709749649
 31
0.0
  0
LINE
  5
291
  8
DV3_0
  6
CONTINUOUS
 62
     7
 10
152.9570568524
 20
54.7709749649
 30
0.0
 11
153.1833310224
 21
54.7709749649
 31
0.0
  0
LINE
  5
292
  8
DV3_0
  6
CONTINUOUS
 62
     7
 10
128.2233310224
 20
54.7709749649
 30
0.0
 11
130.1433310224
 21
54.7709749649
 31
0.0
  0
LINE
  5
293
  8
DV3_0
  6
CONTINUOUS
 62
     7
 10
153.1833310224
 20
54.7709749649
 30
0.0
 11
155.1033310224
 21
54.7709749649
 31
0.0
  0
LINE
  5
294
  8
DV3_0
  6
CONTINUOUS
 62
     7
 10
128.2233310224
 20
59.8909749649
 30
0.0
 11
130.1433310224
 21
59.8909749649
 31
0.0
  0
LINE
  5
295
  8
DV3_0
  6
CONTINUOUS
 62
     7
 10
130.1433310224
 20
54.7709749649
 30
0.0
 11
130.1433310224
 21
59.8909749649
 31
0.0
  0
LINE
  5
296
  8
DV3_0
  6
CONTINUOUS
 62
     7
 10
153.1833310224
 20
54.7709749649
 30
0.0
 11
153.1833310224
 21
59.8909749649
 31
0.0
  0
LINE
  5
297
  8
DV3_0
  6
CONTINUOUS
 62
     7
 10
153.1833310224
 20
59.8909749649
 30
0.0
 11
155.1033310224
 21
59.8909749649
 31
0.0
  0
LINE
  5
298
  8
DV3_0
  6
CONTINUOUS
 62
     7
 10
153.5785310224
 20
63.0909749649
 30
0.0
 11
151.5081310224
 21
63.0909749649
 31
0.0
  0
LINE
  5
299
  8
DV3_0
  6
CONTINUOUS
 62
     7
 10
151.2633310224
 20
62.8461749649
 30
0.0
 11
151.2633310224
 21
59.8909749649
 31
0.0
  0
LINE
  5
29A
  8
DV3_0
  6
CONTINUOUS
 62
     7
 10
153.8233310224
 20
59.8909749649
 30
0.0
 11
153.8233310224
 21
62.8461749649
 31
0.0
  0
LINE
  5
29B
  8
DV3_0
  6
CONTINUOUS
 62
     7
 10
153.8233310224
 20
62.8461749649
 30
0.0
 11
153.5785310224
 21
63.0909749649
 31
0.0
  0
LINE
  5
29C
  8
DV3_0
  6
CONTINUOUS
 62
     7
 10
151.5081310224
 20
63.0909749649
 30
0.0
 11
151.2633310224
 21
62.8461749649
 31
0.0
  0
LINE
  5
29D
  8
DV3_0
  6
CONTINUOUS
 62
     7
 10
131.8185310224
 20
63.0909749649
 30
0.0
 11
129.7481310224
 21
63.0909749649
 31
0.0
  0
LINE
  5
29E
  8
DV3_0
  6
CONTINUOUS
 62
     7
 10
129.5033310224
 20
62.8461749649
 30
0.0
 11
129.5033310224
 21
59.8909749649
 31
0.0
  0
LINE
  5
29F
  8
DV3_0
  6
CONTINUOUS
 62
     7
 10
132.0633310224
 20
59.8909749649
 30
0.0
 11
132.0633310224
 21
62.8461749649
 31
0.0
  0
LINE
  5
2A0
  8
DV3_0
  6
CONTINUOUS
 62
     7
 10
132.0633310224
 20
62.8461749649
 30
0.0
 11
131.8185310224
 21
63.0909749649
 31
0.0
  0
LINE
  5
2A1
  8
DV3_0
  6
CONTINUOUS
 62
     7
 10
129.7481310224
 20
63.0909749649
 30
0.0
 11
129.5033310224
 21
62.8461749649
 31
0.0
  0
LINE
  5
2A2
  8
DV3_0
  6
CONTINUOUS
 62
     7
 10
127.7913314803
 20
40.7069749649
 30
0.0
 11
127.7913314803
 21
45.1869749649
 31
0.0
  0
LINE
  5
2A3
  8
DV3_0
  6
CONTINUOUS
 62
     7
 10
128.7513314803
 20
45.1869749649
 30
0.0
 11
127.7913314803
 21
45.1869749649
 31
0.0
  0
LINE
  5
2A4
  8
DV3_0
  6
CONTINUOUS
 62
     7
 10
127.7913314803
 20
40.7069749649
 30
0.0
 11
128.7513314803
 21
40.7069749649
 31
0.0
  0
LINE
  5
2A5
  8
DV3_0
  6
CONTINUOUS
 62
     7
 10
128.8633310224
 20
45.0749749649
 30
0.0
 11
128.7513310224
 21
45.0749749649
 31
0.0
  0
LINE
  5
2A6
  8
DV3_0
  6
CONTINUOUS
 62
     7
 10
128.7513310224
 20
40.8189749649
 30
0.0
 11
128.8633310224
 21
40.8189749649
 31
0.0
  0
LINE
  5
2A7
  8
DV3_0
  6
CONTINUOUS
 62
     7
 10
153.422893671
 20
34.9469749649
 30
0.0
 11
151.8486940194
 21
34.9469749649
 31
0.0
  0
LINE
  5
2A8
  8
DV3_0
  6
CONTINUOUS
 62
     7
 10
151.8860188646
 20
34.9949749649
 30
0.0
 11
152.1180453549
 21
34.9949749649
 31
0.0
  0
LINE
  5
2A9
  8
DV3_0
  6
CONTINUOUS
 62
     7
 10
153.3260188646
 20
34.9949749649
 30
0.0
 11
153.4420321097
 21
34.9949749649
 31
0.0
  0
ARC
  5
2AA
  8
DV3_0
  6
CONTINUOUS
 62
     7
 10
151.2820321097
 20
39.2280769501
 30
0.0
 40
4.275973856022973
 50
277.617084993
 51
278.120258545
  0
LINE
  5
2AB
  8
DV3_0
  6
CONTINUOUS
 62
     7
 10
153.4420321097
 20
34.9949749649
 30
0.0
 11
153.4420321097
 21
34.9521032342
 31
0.0
  0
ARC
  5
2AC
  8
DV3_0
  6
CONTINUOUS
 62
     7
 10
152.7220321097
 20
39.2280769501
 30
0.0
 40
4.275973856022965
 50
261.879741455
 51
278.120258545
  0
LINE
  5
2AD
  8
DV3_0
  6
CONTINUOUS
 62
     7
 10
153.4420321097
 20
37.3469749649
 30
0.0
 11
153.6020321097
 21
37.3469749649
 31
0.0
  0
LINE
  5
2AE
  8
DV3_0
  6
CONTINUOUS
 62
     7
 10
153.4420321097
 20
34.9949749649
 30
0.0
 11
153.4420321097
 21
37.3469749649
 31
0.0
  0
ARC
  5
2AF
  8
DV3_0
  6
CONTINUOUS
 62
     7
 10
152.0020321097
 20
34.7869749649
 30
0.0
 40
1.92
 50
265.4192751426
 51
310.0052008849
  0
LINE
  5
2B0
  8
DV3_0
  6
CONTINUOUS
 62
     7
 10
153.2820321097
 20
33.4143278872
 30
0.0
 11
153.2820321097
 21
34.8829749649
 31
0.0
  0
ARC
  5
2B1
  8
DV3_0
  6
CONTINUOUS
 62
     7
 10
153.3460321097
 20
34.8829749649
 30
0.0
 40
0.0639999999999996
 50
90.0
 51
180.0
  0
LINE
  5
2B2
  8
DV3_0
  6
CONTINUOUS
 62
     7
 10
153.422893671
 20
34.9469749649
 30
0.0
 11
153.4420321097
 21
34.9521030941
 31
0.0
  0
LINE
  5
2B3
  8
DV3_0
  6
CONTINUOUS
 62
     7
 10
153.6020321097
 20
37.3469749649
 30
0.0
 11
153.6020321097
 21
37.5069749649
 31
0.0
  0
ARC
  5
2B4
  8
DV3_0
  6
CONTINUOUS
 62
     7
 10
153.1540321097
 20
33.4143278872
 30
0.0
 40
0.128000000000001
 50
310.0052008848
 51
0.0
  0
LINE
  5
2B5
  8
DV3_0
  6
CONTINUOUS
 62
     7
 10
147.0050335258
 20
62.4509749649
 30
0.0
 11
150.721628519
 21
62.4509749649
 31
0.0
  0
ARC
  5
2B6
  8
DV3_0
  6
CONTINUOUS
 62
     7
 10
150.721628519
 20
62.1949749649
 30
0.0
 40
0.2560000000000002
 50
30.0
 51
90.0
  0
ARC
  5
2B7
  8
DV3_0
  6
CONTINUOUS
 62
     7
 10
147.0050335258
 20
62.1949749649
 30
0.0
 40
0.2560000000000007
 50
90.0
 51
150.0
  0
LINE
  5
2B8
  8
DV3_0
  6
CONTINUOUS
 62
     7
 10
150.9433310224
 20
59.8909749649
 30
0.0
 11
150.9433310224
 21
62.3229749649
 31
0.0
  0
LINE
  5
2B9
  8
DV3_0
  6
CONTINUOUS
 62
     7
 10
146.7833310224
 20
62.3229749649
 30
0.0
 11
146.7833310224
 21
59.8909749649
 31
0.0
  0
LINE
  5
2BA
  8
DV3_0
  6
CONTINUOUS
 62
     7
 10
132.6050335258
 20
62.4509749649
 30
0.0
 11
136.321628519
 21
62.4509749649
 31
0.0
  0
ARC
  5
2BB
  8
DV3_0
  6
CONTINUOUS
 62
     7
 10
136.321628519
 20
62.1949749649
 30
0.0
 40
0.2560000000000003
 50
30.0
 51
90.0
  0
ARC
  5
2BC
  8
DV3_0
  6
CONTINUOUS
 62
     7
 10
132.6050335258
 20
62.1949749649
 30
0.0
 40
0.2560000000000007
 50
90.0
 51
150.0
  0
LINE
  5
2BD
  8
DV3_0
  6
CONTINUOUS
 62
     7
 10
136.5433310224
 20
59.8909749649
 30
0.0
 11
136.5433310224
 21
62.3229749649
 31
0.0
  0
LINE
  5
2BE
  8
DV3_0
  6
CONTINUOUS
 62
     7
 10
132.3833310224
 20
62.3229749649
 30
0.0
 11
132.3833310224
 21
59.8909749649
 31
0.0
  0
LINE
  5
2BF
  8
DV3_0
  6
CONTINUOUS
 62
     7
 10
130.7833310224
 20
35.2669749649
 30
0.0
 11
152.5433310224
 21
35.2669749649
 31
0.0
  0
LINE
  5
2C0
  8
DV3_0
  6
CONTINUOUS
 62
     7
 10
130.4633310224
 20
36.2269749649
 30
0.0
 11
152.8633310224
 21
36.2269749649
 31
0.0
  0
LINE
  5
2C1
  8
DV3_0
  6
CONTINUOUS
 62
     7
 10
151.5196117828
 20
30.7869749649
 30
0.0
 11
147.5636324895
 21
30.7869749649
 31
0.0
  0
LINE
  5
2C2
  8
DV3_0
  6
CONTINUOUS
 62
     7
 10
151.8775102735
 20
35.2029749649
 30
0.0
 11
151.9353310224
 21
35.2029749649
 31
0.0
  0
ARC
  5
2C3
  8
DV3_0
  6
CONTINUOUS
 62
     7
 10
152.0225349325
 20
35.1071181349
 30
0.0
 40
0.173840972104752
 50
146.5365253911
 51
180.047187014
  0
LINE
  5
2C4
  8
DV3_0
  6
CONTINUOUS
 62
     7
 10
151.8486940194
 20
31.1069749649
 30
0.0
 11
151.8486940194
 21
35.1069749649
 31
0.0
  0
LINE
  5
2C5
  8
DV3_0
  6
CONTINUOUS
 62
     7
 10
151.8463911588
 20
31.0666275848
 30
0.0
 11
151.8486940194
 21
31.1069749649
 31
0.0
  0
ARC
  5
2C6
  8
DV3_0
  6
CONTINUOUS
 62
     7
 10
151.4966282966
 20
31.1445818542
 30
0.0
 40
0.3583447054463915
 50
273.6773566625
 51
347.4354198692
  0
LINE
  5
2C7
  8
DV3_0
  6
CONTINUOUS
 62
     7
 10
145.6193103158
 20
30.7869749649
 30
0.0
 11
137.7073517291
 21
30.7869749649
 31
0.0
  0
ARC
  5
2C8
  8
DV3_0
  6
CONTINUOUS
 62
     7
 10
145.5066432015
 20
35.1096554941
 30
0.0
 40
0.3345109622631012
 50
359.5408681036
 51
16.1989097466
  0
ARC
  5
2C9
  8
DV3_0
  6
CONTINUOUS
 62
     7
 10
147.8092934393
 20
35.1035210273
 30
0.0
 40
0.1384549093109613
 50
134.0846404093
 51
178.5705340459
  0
LINE
  5
2CA
  8
DV3_0
  6
CONTINUOUS
 62
     7
 10
147.6708816181
 20
35.1069749649
 30
0.0
 11
147.6708816181
 21
31.1069749649
 31
0.0
  0
LINE
  5
2CB
  8
DV3_0
  6
CONTINUOUS
 62
     7
 10
147.6708816181
 20
31.1069749649
 30
0.0
 11
147.6675183065
 21
31.0666275848
 31
0.0
  0
LINE
  5
2CC
  8
DV3_0
  6
CONTINUOUS
 62
     7
 10
145.8422038747
 20
31.0666275848
 30
0.0
 11
145.8411434237
 21
31.1069749649
 31
0.0
  0
LINE
  5
2CD
  8
DV3_0
  6
CONTINUOUS
 62
     7
 10
145.8411434237
 20
31.1069749649
 30
0.0
 11
145.8411434237
 21
35.1069749649
 31
0.0
  0
POLYLINE
  5
2CE
  8
DV3_0
  6
CONTINUOUS
 62
     7
 66
     1
 10
0.0
 20
0.0
 30
0.0
  0
VERTEX
  5
5C3
  8
DV3_0
  6
CONTINUOUS
 62
     7
 10
147.6675183065
 20
31.0666275848
 30
0.0
  0
VERTEX
  5
5C4
  8
DV3_0
  6
CONTINUOUS
 62
     7
 10
147.670981248
 20
31.0626815338
 30
0.0
  0
VERTEX
  5
5C5
  8
DV3_0
  6
CONTINUOUS
 62
     7
 10
147.67439488
 20
31.0587201604
 30
0.0
  0
VERTEX
  5
5C6
  8
DV3_0
  6
CONTINUOUS
 62
     7
 10
147.6777575933
 20
31.0547432781
 30
0.0
  0
VERTEX
  5
5C7
  8
DV3_0
  6
CONTINUOUS
 62
     7
 10
147.6810677784
 20
31.0507507005
 30
0.0
  0
VERTEX
  5
5C8
  8
DV3_0
  6
CONTINUOUS
 62
     7
 10
147.6843238263
 20
31.0467422411
 30
0.0
  0
VERTEX
  5
5C9
  8
DV3_0
  6
CONTINUOUS
 62
     7
 10
147.6875241275
 20
31.0427177133
 30
0.0
  0
VERTEX
  5
5CA
  8
DV3_0
  6
CONTINUOUS
 62
     7
 10
147.6906670728
 20
31.0386769307
 30
0.0
  0
VERTEX
  5
5CB
  8
DV3_0
  6
CONTINUOUS
 62
     7
 10
147.6937510529
 20
31.0346197067
 30
0.0
  0
VERTEX
  5
5CC
  8
DV3_0
  6
CONTINUOUS
 62
     7
 10
147.6967744586
 20
31.030545855
 30
0.0
  0
VERTEX
  5
5CD
  8
DV3_0
  6
CONTINUOUS
 62
     7
 10
147.6997356805
 20
31.0264551889
 30
0.0
  0
VERTEX
  5
5CE
  8
DV3_0
  6
CONTINUOUS
 62
     7
 10
147.7026331095
 20
31.022347522
 30
0.0
  0
VERTEX
  5
5CF
  8
DV3_0
  6
CONTINUOUS
 62
     7
 10
147.7054651361
 20
31.0182226679
 30
0.0
  0
VERTEX
  5
5D0
  8
DV3_0
  6
CONTINUOUS
 62
     7
 10
147.7082301512
 20
31.0140804399
 30
0.0
  0
VERTEX
  5
5D1
  8
DV3_0
  6
CONTINUOUS
 62
     7
 10
147.7109265454
 20
31.0099206516
 30
0.0
  0
VERTEX
  5
5D2
  8
DV3_0
  6
CONTINUOUS
 62
     7
 10
147.7135527095
 20
31.0057431166
 30
0.0
  0
VERTEX
  5
5D3
  8
DV3_0
  6
CONTINUOUS
 62
     7
 10
147.7161070342
 20
31.0015476483
 30
0.0
  0
VERTEX
  5
5D4
  8
DV3_0
  6
CONTINUOUS
 62
     7
 10
147.7185879102
 20
30.9973340602
 30
0.0
  0
VERTEX
  5
5D5
  8
DV3_0
  6
CONTINUOUS
 62
     7
 10
147.7209937282
 20
30.9931021658
 30
0.0
  0
VERTEX
  5
5D6
  8
DV3_0
  6
CONTINUOUS
 62
     7
 10
147.723322879
 20
30.9888517787
 30
0.0
  0
VERTEX
  5
5D7
  8
DV3_0
  6
CONTINUOUS
 62
     7
 10
147.7255737532
 20
30.9845827123
 30
0.0
  0
VERTEX
  5
5D8
  8
DV3_0
  6
CONTINUOUS
 62
     7
 10
147.7277447417
 20
30.9802947802
 30
0.0
  0
VERTEX
  5
5D9
  8
DV3_0
  6
CONTINUOUS
 62
     7
 10
147.729834235
 20
30.9759877959
 30
0.0
  0
VERTEX
  5
5DA
  8
DV3_0
  6
CONTINUOUS
 62
     7
 10
147.731837374
 20
30.9716643706
 30
0.0
  0
VERTEX
  5
5DB
  8
DV3_0
  6
CONTINUOUS
 62
     7
 10
147.733747802
 20
30.9673286614
 30
0.0
  0
VERTEX
  5
5DC
  8
DV3_0
  6
CONTINUOUS
 62
     7
 10
147.7355616636
 20
30.9629828005
 30
0.0
  0
VERTEX
  5
5DD
  8
DV3_0
  6
CONTINUOUS
 62
     7
 10
147.7372751036
 20
30.9586289199
 30
0.0
  0
VERTEX
  5
5DE
  8
DV3_0
  6
CONTINUOUS
 62
     7
 10
147.7388842667
 20
30.9542691519
 30
0.0
  0
VERTEX
  5
5DF
  8
DV3_0
  6
CONTINUOUS
 62
     7
 10
147.7403852975
 20
30.9499056284
 30
0.0
  0
VERTEX
  5
5E0
  8
DV3_0
  6
CONTINUOUS
 62
     7
 10
147.7417743408
 20
30.9455404816
 30
0.0
  0
VERTEX
  5
5E1
  8
DV3_0
  6
CONTINUOUS
 62
     7
 10
147.7430475412
 20
30.9411758438
 30
0.0
  0
VERTEX
  5
5E2
  8
DV3_0
  6
CONTINUOUS
 62
     7
 10
147.7442010435
 20
30.9368138469
 30
0.0
  0
VERTEX
  5
5E3
  8
DV3_0
  6
CONTINUOUS
 62
     7
 10
147.7452309923
 20
30.932456623
 30
0.0
  0
VERTEX
  5
5E4
  8
DV3_0
  6
CONTINUOUS
 62
     7
 10
147.7461335324
 20
30.9281063045
 30
0.0
  0
VERTEX
  5
5E5
  8
DV3_0
  6
CONTINUOUS
 62
     7
 10
147.7469048084
 20
30.9237650232
 30
0.0
  0
VERTEX
  5
5E6
  8
DV3_0
  6
CONTINUOUS
 62
     7
 10
147.747540965
 20
30.9194349115
 30
0.0
  0
VERTEX
  5
5E7
  8
DV3_0
  6
CONTINUOUS
 62
     7
 10
147.748038147
 20
30.9151181013
 30
0.0
  0
VERTEX
  5
5E8
  8
DV3_0
  6
CONTINUOUS
 62
     7
 10
147.7483924989
 20
30.9108167249
 30
0.0
  0
VERTEX
  5
5E9
  8
DV3_0
  6
CONTINUOUS
 62
     7
 10
147.7486001656
 20
30.9065329143
 30
0.0
  0
VERTEX
  5
5EA
  8
DV3_0
  6
CONTINUOUS
 62
     7
 10
147.7486572917
 20
30.9022688016
 30
0.0
  0
VERTEX
  5
5EB
  8
DV3_0
  6
CONTINUOUS
 62
     7
 10
147.7485600219
 20
30.8980265191
 30
0.0
  0
VERTEX
  5
5EC
  8
DV3_0
  6
CONTINUOUS
 62
     7
 10
147.7483045009
 20
30.8938081987
 30
0.0
  0
VERTEX
  5
5ED
  8
DV3_0
  6
CONTINUOUS
 62
     7
 10
147.7478868734
 20
30.8896159727
 30
0.0
  0
VERTEX
  5
5EE
  8
DV3_0
  6
CONTINUOUS
 62
     7
 10
147.7473032842
 20
30.8854519732
 30
0.0
  0
VERTEX
  5
5EF
  8
DV3_0
  6
CONTINUOUS
 62
     7
 10
147.7465498777
 20
30.8813183322
 30
0.0
  0
VERTEX
  5
5F0
  8
DV3_0
  6
CONTINUOUS
 62
     7
 10
147.7456190761
 20
30.8772195872
 30
0.0
  0
VERTEX
  5
5F1
  8
DV3_0
  6
CONTINUOUS
 62
     7
 10
147.7445053954
 20
30.8731625958
 30
0.0
  0
VERTEX
  5
5F2
  8
DV3_0
  6
CONTINUOUS
 62
     7
 10
147.7432081217
 20
30.8691529708
 30
0.0
  0
VERTEX
  5
5F3
  8
DV3_0
  6
CONTINUOUS
 62
     7
 10
147.7417265412
 20
30.865196325
 30
0.0
  0
VERTEX
  5
5F4
  8
DV3_0
  6
CONTINUOUS
 62
     7
 10
147.74005994
 20
30.8612982713
 30
0.0
  0
VERTEX
  5
5F5
  8
DV3_0
  6
CONTINUOUS
 62
     7
 10
147.7382076041
 20
30.8574644224
 30
0.0
  0
VERTEX
  5
5F6
  8
DV3_0
  6
CONTINUOUS
 62
     7
 10
147.7361688198
 20
30.8537003911
 30
0.0
  0
VERTEX
  5
5F7
  8
DV3_0
  6
CONTINUOUS
 62
     7
 10
147.733942873
 20
30.8500117902
 30
0.0
  0
VERTEX
  5
5F8
  8
DV3_0
  6
CONTINUOUS
 62
     7
 10
147.73152905
 20
30.8464042325
 30
0.0
  0
VERTEX
  5
5F9
  8
DV3_0
  6
CONTINUOUS
 62
     7
 10
147.7289266368
 20
30.8428833307
 30
0.0
  0
VERTEX
  5
5FA
  8
DV3_0
  6
CONTINUOUS
 62
     7
 10
147.7261349195
 20
30.8394546978
 30
0.0
  0
VERTEX
  5
5FB
  8
DV3_0
  6
CONTINUOUS
 62
     7
 10
147.7231555491
 20
30.8361243959
 30
0.0
  0
VERTEX
  5
5FC
  8
DV3_0
  6
CONTINUOUS
 62
     7
 10
147.7199940905
 20
30.8328960124
 30
0.0
  0
VERTEX
  5
5FD
  8
DV3_0
  6
CONTINUOUS
 62
     7
 10
147.7166557006
 20
30.8297714477
 30
0.0
  0
VERTEX
  5
5FE
  8
DV3_0
  6
CONTINUOUS
 62
     7
 10
147.7131455364
 20
30.8267526023
 30
0.0
  0
VERTEX
  5
5FF
  8
DV3_0
  6
CONTINUOUS
 62
     7
 10
147.7094687548
 20
30.8238413766
 30
0.0
  0
VERTEX
  5
600
  8
DV3_0
  6
CONTINUOUS
 62
     7
 10
147.7056305129
 20
30.8210396709
 30
0.0
  0
VERTEX
  5
601
  8
DV3_0
  6
CONTINUOUS
 62
     7
 10
147.7016359677
 20
30.8183493858
 30
0.0
  0
VERTEX
  5
602
  8
DV3_0
  6
CONTINUOUS
 62
     7
 10
147.6974902761
 20
30.8157724215
 30
0.0
  0
VERTEX
  5
603
  8
DV3_0
  6
CONTINUOUS
 62
     7
 10
147.693198595
 20
30.8133106785
 30
0.0
  0
VERTEX
  5
604
  8
DV3_0
  6
CONTINUOUS
 62
     7
 10
147.6887660816
 20
30.8109660573
 30
0.0
  0
VERTEX
  5
605
  8
DV3_0
  6
CONTINUOUS
 62
     7
 10
147.6841978927
 20
30.8087404582
 30
0.0
  0
VERTEX
  5
606
  8
DV3_0
  6
CONTINUOUS
 62
     7
 10
147.6795102187
 20
30.8066365671
 30
0.0
  0
VERTEX
  5
607
  8
DV3_0
  6
CONTINUOUS
 62
     7
 10
147.6747186527
 20
30.8046542596
 30
0.0
  0
VERTEX
  5
608
  8
DV3_0
  6
CONTINUOUS
 62
     7
 10
147.6698274561
 20
30.8027912201
 30
0.0
  0
VERTEX
  5
609
  8
DV3_0
  6
CONTINUOUS
 62
     7
 10
147.6648408902
 20
30.8010451334
 30
0.0
  0
VERTEX
  5
60A
  8
DV3_0
  6
CONTINUOUS
 62
     7
 10
147.6597632163
 20
30.799413684
 30
0.0
  0
VERTEX
  5
60B
  8
DV3_0
  6
CONTINUOUS
 62
     7
 10
147.6545986959
 20
30.7978945566
 30
0.0
  0
VERTEX
  5
60C
  8
DV3_0
  6
CONTINUOUS
 62
     7
 10
147.6493515902
 20
30.7964854359
 30
0.0
  0
VERTEX
  5
60D
  8
DV3_0
  6
CONTINUOUS
 62
     7
 10
147.6440261607
 20
30.7951840063
 30
0.0
  0
VERTEX
  5
60E
  8
DV3_0
  6
CONTINUOUS
 62
     7
 10
147.6386266685
 20
30.7939879527
 30
0.0
  0
VERTEX
  5
60F
  8
DV3_0
  6
CONTINUOUS
 62
     7
 10
147.6331573752
 20
30.7928949595
 30
0.0
  0
VERTEX
  5
610
  8
DV3_0
  6
CONTINUOUS
 62
     7
 10
147.627622542
 20
30.7919027115
 30
0.0
  0
VERTEX
  5
611
  8
DV3_0
  6
CONTINUOUS
 62
     7
 10
147.6220264302
 20
30.7910088932
 30
0.0
  0
VERTEX
  5
612
  8
DV3_0
  6
CONTINUOUS
 62
     7
 10
147.6163733013
 20
30.7902111893
 30
0.0
  0
VERTEX
  5
613
  8
DV3_0
  6
CONTINUOUS
 62
     7
 10
147.6106674165
 20
30.7895072844
 30
0.0
  0
VERTEX
  5
614
  8
DV3_0
  6
CONTINUOUS
 62
     7
 10
147.6049130373
 20
30.7888948632
 30
0.0
  0
VERTEX
  5
615
  8
DV3_0
  6
CONTINUOUS
 62
     7
 10
147.5991144249
 20
30.7883716102
 30
0.0
  0
VERTEX
  5
616
  8
DV3_0
  6
CONTINUOUS
 62
     7
 10
147.5932758407
 20
30.7879352101
 30
0.0
  0
VERTEX
  5
617
  8
DV3_0
  6
CONTINUOUS
 62
     7
 10
147.587401546
 20
30.7875833475
 30
0.0
  0
VERTEX
  5
618
  8
DV3_0
  6
CONTINUOUS
 62
     7
 10
147.5814958022
 20
30.787313707
 30
0.0
  0
VERTEX
  5
619
  8
DV3_0
  6
CONTINUOUS
 62
     7
 10
147.5755628706
 20
30.7871239734
 30
0.0
  0
VERTEX
  5
61A
  8
DV3_0
  6
CONTINUOUS
 62
     7
 10
147.5696070126
 20
30.7870118311
 30
0.0
  0
VERTEX
  5
61B
  8
DV3_0
  6
CONTINUOUS
 62
     7
 10
147.5636324895
 20
30.7869749649
 30
0.0
  0
SEQEND
  5
7AE
  8
DV3_0
  6
CONTINUOUS
 62
     7
  0
LINE
  5
2CF
  8
DV3_0
  6
CONTINUOUS
 62
     7
 10
145.6202454852
 20
30.7869749649
 30
0.0
 11
145.6193103158
 21
30.7869749649
 31
0.0
  0
POLYLINE
  5
2D0
  8
DV3_0
  6
CONTINUOUS
 62
     7
 66
     1
 10
0.0
 20
0.0
 30
0.0
  0
VERTEX
  5
61C
  8
DV3_0
  6
CONTINUOUS
 62
     7
 10
145.6193103158
 20
30.7869749649
 30
0.0
  0
VERTEX
  5
61D
  8
DV3_0
  6
CONTINUOUS
 62
     7
 10
145.6179923248
 20
30.7870015589
 30
0.0
  0
VERTEX
  5
61E
  8
DV3_0
  6
CONTINUOUS
 62
     7
 10
145.6167240523
 20
30.7870822297
 30
0.0
  0
VERTEX
  5
61F
  8
DV3_0
  6
CONTINUOUS
 62
     7
 10
145.6155075395
 20
30.7872183103
 30
0.0
  0
VERTEX
  5
620
  8
DV3_0
  6
CONTINUOUS
 62
     7
 10
145.614344828
 20
30.7874111339
 30
0.0
  0
VERTEX
  5
621
  8
DV3_0
  6
CONTINUOUS
 62
     7
 10
145.6132379591
 20
30.7876620334
 30
0.0
  0
VERTEX
  5
622
  8
DV3_0
  6
CONTINUOUS
 62
     7
 10
145.6121889741
 20
30.7879723421
 30
0.0
  0
VERTEX
  5
623
  8
DV3_0
  6
CONTINUOUS
 62
     7
 10
145.6111999145
 20
30.7883433929
 30
0.0
  0
VERTEX
  5
624
  8
DV3_0
  6
CONTINUOUS
 62
     7
 10
145.6102728217
 20
30.7887765189
 30
0.0
  0
VERTEX
  5
625
  8
DV3_0
  6
CONTINUOUS
 62
     7
 10
145.6094097369
 20
30.7892730532
 30
0.0
  0
VERTEX
  5
626
  8
DV3_0
  6
CONTINUOUS
 62
     7
 10
145.6086127017
 20
30.789834329
 30
0.0
  0
VERTEX
  5
627
  8
DV3_0
  6
CONTINUOUS
 62
     7
 10
145.6078837573
 20
30.7904616792
 30
0.0
  0
VERTEX
  5
628
  8
DV3_0
  6
CONTINUOUS
 62
     7
 10
145.6072249452
 20
30.791156437
 30
0.0
  0
VERTEX
  5
629
  8
DV3_0
  6
CONTINUOUS
 62
     7
 10
145.6066383067
 20
30.7919199354
 30
0.0
  0
VERTEX
  5
62A
  8
DV3_0
  6
CONTINUOUS
 62
     7
 10
145.6061258833
 20
30.7927535076
 30
0.0
  0
VERTEX
  5
62B
  8
DV3_0
  6
CONTINUOUS
 62
     7
 10
145.6056897163
 20
30.7936584865
 30
0.0
  0
VERTEX
  5
62C
  8
DV3_0
  6
CONTINUOUS
 62
     7
 10
145.6053318472
 20
30.7946362053
 30
0.0
  0
VERTEX
  5
62D
  8
DV3_0
  6
CONTINUOUS
 62
     7
 10
145.6050543171
 20
30.7956879971
 30
0.0
  0
VERTEX
  5
62E
  8
DV3_0
  6
CONTINUOUS
 62
     7
 10
145.6048591677
 20
30.7968151949
 30
0.0
  0
VERTEX
  5
62F
  8
DV3_0
  6
CONTINUOUS
 62
     7
 10
145.6047484402
 20
30.7980191318
 30
0.0
  0
VERTEX
  5
630
  8
DV3_0
  6
CONTINUOUS
 62
     7
 10
145.6047241761
 20
30.7993011409
 30
0.0
  0
VERTEX
  5
631
  8
DV3_0
  6
CONTINUOUS
 62
     7
 10
145.6047884167
 20
30.8006625553
 30
0.0
  0
VERTEX
  5
632
  8
DV3_0
  6
CONTINUOUS
 62
     7
 10
145.6049432033
 20
30.802104708
 30
0.0
  0
VERTEX
  5
633
  8
DV3_0
  6
CONTINUOUS
 62
     7
 10
145.6051905775
 20
30.8036289322
 30
0.0
  0
VERTEX
  5
634
  8
DV3_0
  6
CONTINUOUS
 62
     7
 10
145.6055325805
 20
30.8052365609
 30
0.0
  0
VERTEX
  5
635
  8
DV3_0
  6
CONTINUOUS
 62
     7
 10
145.6059712538
 20
30.8069289271
 30
0.0
  0
VERTEX
  5
636
  8
DV3_0
  6
CONTINUOUS
 62
     7
 10
145.6065086387
 20
30.8087073641
 30
0.0
  0
VERTEX
  5
637
  8
DV3_0
  6
CONTINUOUS
 62
     7
 10
145.607148191
 20
30.8105743025
 30
0.0
  0
VERTEX
  5
638
  8
DV3_0
  6
CONTINUOUS
 62
     7
 10
145.6078916594
 20
30.8125300883
 30
0.0
  0
VERTEX
  5
639
  8
DV3_0
  6
CONTINUOUS
 62
     7
 10
145.6087385245
 20
30.814572927
 30
0.0
  0
VERTEX
  5
63A
  8
DV3_0
  6
CONTINUOUS
 62
     7
 10
145.6096882671
 20
30.8167010243
 30
0.0
  0
VERTEX
  5
63B
  8
DV3_0
  6
CONTINUOUS
 62
     7
 10
145.6107403678
 20
30.8189125858
 30
0.0
  0
VERTEX
  5
63C
  8
DV3_0
  6
CONTINUOUS
 62
     7
 10
145.6118943074
 20
30.8212058173
 30
0.0
  0
VERTEX
  5
63D
  8
DV3_0
  6
CONTINUOUS
 62
     7
 10
145.6131495667
 20
30.8235789242
 30
0.0
  0
VERTEX
  5
63E
  8
DV3_0
  6
CONTINUOUS
 62
     7
 10
145.6145056261
 20
30.8260301123
 30
0.0
  0
VERTEX
  5
63F
  8
DV3_0
  6
CONTINUOUS
 62
     7
 10
145.6159619666
 20
30.8285575872
 30
0.0
  0
VERTEX
  5
640
  8
DV3_0
  6
CONTINUOUS
 62
     7
 10
145.6175180688
 20
30.8311595546
 30
0.0
  0
VERTEX
  5
641
  8
DV3_0
  6
CONTINUOUS
 62
     7
 10
145.6191734135
 20
30.83383422
 30
0.0
  0
VERTEX
  5
642
  8
DV3_0
  6
CONTINUOUS
 62
     7
 10
145.6209274812
 20
30.8365797891
 30
0.0
  0
VERTEX
  5
643
  8
DV3_0
  6
CONTINUOUS
 62
     7
 10
145.6227797527
 20
30.8393944676
 30
0.0
  0
VERTEX
  5
644
  8
DV3_0
  6
CONTINUOUS
 62
     7
 10
145.6247309734
 20
30.8422789916
 30
0.0
  0
VERTEX
  5
645
  8
DV3_0
  6
CONTINUOUS
 62
     7
 10
145.626780046
 20
30.8452328746
 30
0.0
  0
VERTEX
  5
646
  8
DV3_0
  6
CONTINUOUS
 62
     7
 10
145.6289236879
 20
30.8482524877
 30
0.0
  0
VERTEX
  5
647
  8
DV3_0
  6
CONTINUOUS
 62
     7
 10
145.631158616
 20
30.8513342023
 30
0.0
  0
VERTEX
  5
648
  8
DV3_0
  6
CONTINUOUS
 62
     7
 10
145.6334815477
 20
30.8544743897
 30
0.0
  0
VERTEX
  5
649
  8
DV3_0
  6
CONTINUOUS
 62
     7
 10
145.6358892001
 20
30.857669421
 30
0.0
  0
VERTEX
  5
64A
  8
DV3_0
  6
CONTINUOUS
 62
     7
 10
145.6383782903
 20
30.8609156677
 30
0.0
  0
VERTEX
  5
64B
  8
DV3_0
  6
CONTINUOUS
 62
     7
 10
145.6409455355
 20
30.864209501
 30
0.0
  0
VERTEX
  5
64C
  8
DV3_0
  6
CONTINUOUS
 62
     7
 10
145.6435876529
 20
30.8675472921
 30
0.0
  0
VERTEX
  5
64D
  8
DV3_0
  6
CONTINUOUS
 62
     7
 10
145.6463013597
 20
30.8709254124
 30
0.0
  0
VERTEX
  5
64E
  8
DV3_0
  6
CONTINUOUS
 62
     7
 10
145.649083373
 20
30.8743402331
 30
0.0
  0
VERTEX
  5
64F
  8
DV3_0
  6
CONTINUOUS
 62
     7
 10
145.65193041
 20
30.8777881255
 30
0.0
  0
VERTEX
  5
650
  8
DV3_0
  6
CONTINUOUS
 62
     7
 10
145.6548391879
 20
30.8812654609
 30
0.0
  0
VERTEX
  5
651
  8
DV3_0
  6
CONTINUOUS
 62
     7
 10
145.6578091297
 20
30.8847724569
 30
0.0
  0
VERTEX
  5
652
  8
DV3_0
  6
CONTINUOUS
 62
     7
 10
145.6608395373
 20
30.8883097104
 30
0.0
  0
VERTEX
  5
653
  8
DV3_0
  6
CONTINUOUS
 62
     7
 10
145.6639269466
 20
30.8918741623
 30
0.0
  0
VERTEX
  5
654
  8
DV3_0
  6
CONTINUOUS
 62
     7
 10
145.6670678933
 20
30.8954627531
 30
0.0
  0
VERTEX
  5
655
  8
DV3_0
  6
CONTINUOUS
 62
     7
 10
145.6702589133
 20
30.8990724234
 30
0.0
  0
VERTEX
  5
656
  8
DV3_0
  6
CONTINUOUS
 62
     7
 10
145.6734965422
 20
30.902700114
 30
0.0
  0
VERTEX
  5
657
  8
DV3_0
  6
CONTINUOUS
 62
     7
 10
145.6767773159
 20
30.9063427655
 30
0.0
  0
VERTEX
  5
658
  8
DV3_0
  6
CONTINUOUS
 62
     7
 10
145.68009777
 20
30.9099973185
 30
0.0
  0
VERTEX
  5
659
  8
DV3_0
  6
CONTINUOUS
 62
     7
 10
145.6834544405
 20
30.9136607137
 30
0.0
  0
VERTEX
  5
65A
  8
DV3_0
  6
CONTINUOUS
 62
     7
 10
145.686843863
 20
30.9173298917
 30
0.0
  0
VERTEX
  5
65B
  8
DV3_0
  6
CONTINUOUS
 62
     7
 10
145.6902625733
 20
30.9210017933
 30
0.0
  0
VERTEX
  5
65C
  8
DV3_0
  6
CONTINUOUS
 62
     7
 10
145.6937071073
 20
30.9246733589
 30
0.0
  0
VERTEX
  5
65D
  8
DV3_0
  6
CONTINUOUS
 62
     7
 10
145.6971740006
 20
30.9283415293
 30
0.0
  0
VERTEX
  5
65E
  8
DV3_0
  6
CONTINUOUS
 62
     7
 10
145.7006636107
 20
30.9320076958
 30
0.0
  0
VERTEX
  5
65F
  8
DV3_0
  6
CONTINUOUS
 62
     7
 10
145.7041780625
 20
30.9356750482
 30
0.0
  0
VERTEX
  5
660
  8
DV3_0
  6
CONTINUOUS
 62
     7
 10
145.707716543
 20
30.939343225
 30
0.0
  0
VERTEX
  5
661
  8
DV3_0
  6
CONTINUOUS
 62
     7
 10
145.7112782391
 20
30.9430118649
 30
0.0
  0
VERTEX
  5
662
  8
DV3_0
  6
CONTINUOUS
 62
     7
 10
145.7148623378
 20
30.9466806063
 30
0.0
  0
VERTEX
  5
663
  8
DV3_0
  6
CONTINUOUS
 62
     7
 10
145.718468026
 20
30.9503490878
 30
0.0
  0
VERTEX
  5
664
  8
DV3_0
  6
CONTINUOUS
 62
     7
 10
145.7220944908
 20
30.9540169479
 30
0.0
  0
VERTEX
  5
665
  8
DV3_0
  6
CONTINUOUS
 62
     7
 10
145.725740919
 20
30.9576838253
 30
0.0
  0
VERTEX
  5
666
  8
DV3_0
  6
CONTINUOUS
 62
     7
 10
145.7294064976
 20
30.9613493584
 30
0.0
  0
VERTEX
  5
667
  8
DV3_0
  6
CONTINUOUS
 62
     7
 10
145.7330904136
 20
30.9650131858
 30
0.0
  0
VERTEX
  5
668
  8
DV3_0
  6
CONTINUOUS
 62
     7
 10
145.7367918539
 20
30.968674946
 30
0.0
  0
VERTEX
  5
669
  8
DV3_0
  6
CONTINUOUS
 62
     7
 10
145.7405100056
 20
30.9723342776
 30
0.0
  0
VERTEX
  5
66A
  8
DV3_0
  6
CONTINUOUS
 62
     7
 10
145.7442440554
 20
30.9759908192
 30
0.0
  0
VERTEX
  5
66B
  8
DV3_0
  6
CONTINUOUS
 62
     7
 10
145.7479869263
 20
30.9796384048
 30
0.0
  0
VERTEX
  5
66C
  8
DV3_0
  6
CONTINUOUS
 62
     7
 10
145.7517320596
 20
30.98327126
 30
0.0
  0
VERTEX
  5
66D
  8
DV3_0
  6
CONTINUOUS
 62
     7
 10
145.7554794209
 20
30.9868896106
 30
0.0
  0
VERTEX
  5
66E
  8
DV3_0
  6
CONTINUOUS
 62
     7
 10
145.7592289753
 20
30.9904936823
 30
0.0
  0
VERTEX
  5
66F
  8
DV3_0
  6
CONTINUOUS
 62
     7
 10
145.7629806882
 20
30.9940837009
 30
0.0
  0
VERTEX
  5
670
  8
DV3_0
  6
CONTINUOUS
 62
     7
 10
145.766734525
 20
30.997659892
 30
0.0
  0
VERTEX
  5
671
  8
DV3_0
  6
CONTINUOUS
 62
     7
 10
145.770490451
 20
31.0012224813
 30
0.0
  0
VERTEX
  5
672
  8
DV3_0
  6
CONTINUOUS
 62
     7
 10
145.7742484315
 20
31.0047716948
 30
0.0
  0
VERTEX
  5
673
  8
DV3_0
  6
CONTINUOUS
 62
     7
 10
145.7780084318
 20
31.008307758
 30
0.0
  0
VERTEX
  5
674
  8
DV3_0
  6
CONTINUOUS
 62
     7
 10
145.7817704173
 20
31.0118308967
 30
0.0
  0
VERTEX
  5
675
  8
DV3_0
  6
CONTINUOUS
 62
     7
 10
145.7855343533
 20
31.0153413367
 30
0.0
  0
VERTEX
  5
676
  8
DV3_0
  6
CONTINUOUS
 62
     7
 10
145.7893002051
 20
31.0188393036
 30
0.0
  0
VERTEX
  5
677
  8
DV3_0
  6
CONTINUOUS
 62
     7
 10
145.793067938
 20
31.0223250232
 30
0.0
  0
VERTEX
  5
678
  8
DV3_0
  6
CONTINUOUS
 62
     7
 10
145.7968375174
 20
31.0257987213
 30
0.0
  0
VERTEX
  5
679
  8
DV3_0
  6
CONTINUOUS
 62
     7
 10
145.8006089087
 20
31.0292606236
 30
0.0
  0
VERTEX
  5
67A
  8
DV3_0
  6
CONTINUOUS
 62
     7
 10
145.804382077
 20
31.0327109558
 30
0.0
  0
VERTEX
  5
67B
  8
DV3_0
  6
CONTINUOUS
 62
     7
 10
145.8081569878
 20
31.0361499436
 30
0.0
  0
VERTEX
  5
67C
  8
DV3_0
  6
CONTINUOUS
 62
     7
 10
145.8119336064
 20
31.0395778129
 30
0.0
  0
VERTEX
  5
67D
  8
DV3_0
  6
CONTINUOUS
 62
     7
 10
145.8157118981
 20
31.0429947892
 30
0.0
  0
VERTEX
  5
67E
  8
DV3_0
  6
CONTINUOUS
 62
     7
 10
145.8194918282
 20
31.0464010984
 30
0.0
  0
VERTEX
  5
67F
  8
DV3_0
  6
CONTINUOUS
 62
     7
 10
145.8232733621
 20
31.0497969662
 30
0.0
  0
VERTEX
  5
680
  8
DV3_0
  6
CONTINUOUS
 62
     7
 10
145.8270564651
 20
31.0531826183
 30
0.0
  0
VERTEX
  5
681
  8
DV3_0
  6
CONTINUOUS
 62
     7
 10
145.8308411026
 20
31.0565582805
 30
0.0
  0
VERTEX
  5
682
  8
DV3_0
  6
CONTINUOUS
 62
     7
 10
145.8346272398
 20
31.0599241785
 30
0.0
  0
VERTEX
  5
683
  8
DV3_0
  6
CONTINUOUS
 62
     7
 10
145.838414842
 20
31.063280538
 30
0.0
  0
VERTEX
  5
684
  8
DV3_0
  6
CONTINUOUS
 62
     7
 10
145.8422038747
 20
31.0666275848
 30
0.0
  0
SEQEND
  5
7AD
  8
DV3_0
  6
CONTINUOUS
 62
     7
  0
LINE
  5
2D1
  8
DV3_0
  6
CONTINUOUS
 62
     7
 10
147.5601423897
 20
30.7869749649
 30
0.0
 11
147.3532794747
 21
30.7869749649
 31
0.0
  0
LINE
  5
2D2
  8
DV3_0
  6
CONTINUOUS
 62
     7
 10
147.3532794747
 20
30.7869749649
 30
0.0
 11
145.6202454852
 21
30.7869749649
 31
0.0
  0
LINE
  5
2D3
  8
DV3_0
  6
CONTINUOUS
 62
     7
 10
147.5636324895
 20
30.7869749649
 30
0.0
 11
147.5601423897
 21
30.7869749649
 31
0.0
  0
LINE
  5
2D4
  8
DV3_0
  6
CONTINUOUS
 62
     7
 10
135.7630295553
 20
30.7869749649
 30
0.0
 11
131.807050262
 21
30.7869749649
 31
0.0
  0
ARC
  5
2D5
  8
DV3_0
  6
CONTINUOUS
 62
     7
 10
135.5172510684
 20
35.1034694996
 30
0.0
 40
0.1385737038041484
 50
1.4495520425
 51
45.8952735023
  0
ARC
  5
2D6
  8
DV3_0
  6
CONTINUOUS
 62
     7
 10
137.8197103676
 20
35.1096981334
 30
0.0
 40
0.3342028411996724
 50
163.7933566152
 51
180.4668655346
  0
LINE
  5
2D7
  8
DV3_0
  6
CONTINUOUS
 62
     7
 10
137.4855186212
 20
35.1069749649
 30
0.0
 11
137.4855186212
 21
31.1069749649
 31
0.0
  0
LINE
  5
2D8
  8
DV3_0
  6
CONTINUOUS
 62
     7
 10
137.4855186212
 20
31.1069749649
 30
0.0
 11
137.4844581701
 21
31.0666275848
 31
0.0
  0
LINE
  5
2D9
  8
DV3_0
  6
CONTINUOUS
 62
     7
 10
135.6591437383
 20
31.0666275848
 30
0.0
 11
135.6557804267
 21
31.1069749649
 31
0.0
  0
LINE
  5
2DA
  8
DV3_0
  6
CONTINUOUS
 62
     7
 10
135.6557804267
 20
31.1069749649
 30
0.0
 11
135.6557804267
 21
35.1069749649
 31
0.0
  0
POLYLINE
  5
2DB
  8
DV3_0
  6
CONTINUOUS
 62
     7
 66
     1
 10
0.0
 20
0.0
 30
0.0
  0
VERTEX
  5
685
  8
DV3_0
  6
CONTINUOUS
 62
     7
 10
137.4844581701
 20
31.0666275848
 30
0.0
  0
VERTEX
  5
686
  8
DV3_0
  6
CONTINUOUS
 62
     7
 10
137.4889205799
 20
31.0626843578
 30
0.0
  0
VERTEX
  5
687
  8
DV3_0
  6
CONTINUOUS
 62
     7
 10
137.4933894406
 20
31.0587202329
 30
0.0
  0
VERTEX
  5
688
  8
DV3_0
  6
CONTINUOUS
 62
     7
 10
137.4978638038
 20
31.0547356675
 30
0.0
  0
VERTEX
  5
689
  8
DV3_0
  6
CONTINUOUS
 62
     7
 10
137.502342721
 20
31.050731119
 30
0.0
  0
VERTEX
  5
68A
  8
DV3_0
  6
CONTINUOUS
 62
     7
 10
137.5068252438
 20
31.0467070451
 30
0.0
  0
VERTEX
  5
68B
  8
DV3_0
  6
CONTINUOUS
 62
     7
 10
137.5113104236
 20
31.0426639031
 30
0.0
  0
VERTEX
  5
68C
  8
DV3_0
  6
CONTINUOUS
 62
     7
 10
137.5157973119
 20
31.0386021506
 30
0.0
  0
VERTEX
  5
68D
  8
DV3_0
  6
CONTINUOUS
 62
     7
 10
137.5202849603
 20
31.0345222452
 30
0.0
  0
VERTEX
  5
68E
  8
DV3_0
  6
CONTINUOUS
 62
     7
 10
137.5247724203
 20
31.0304246442
 30
0.0
  0
VERTEX
  5
68F
  8
DV3_0
  6
CONTINUOUS
 62
     7
 10
137.5292587434
 20
31.0263098051
 30
0.0
  0
VERTEX
  5
690
  8
DV3_0
  6
CONTINUOUS
 62
     7
 10
137.5337429811
 20
31.0221781856
 30
0.0
  0
VERTEX
  5
691
  8
DV3_0
  6
CONTINUOUS
 62
     7
 10
137.538224185
 20
31.018030243
 30
0.0
  0
VERTEX
  5
692
  8
DV3_0
  6
CONTINUOUS
 62
     7
 10
137.5427014065
 20
31.0138664349
 30
0.0
  0
VERTEX
  5
693
  8
DV3_0
  6
CONTINUOUS
 62
     7
 10
137.5471736971
 20
31.0096872188
 30
0.0
  0
VERTEX
  5
694
  8
DV3_0
  6
CONTINUOUS
 62
     7
 10
137.5516401084
 20
31.0054930521
 30
0.0
  0
VERTEX
  5
695
  8
DV3_0
  6
CONTINUOUS
 62
     7
 10
137.556099692
 20
31.0012843924
 30
0.0
  0
VERTEX
  5
696
  8
DV3_0
  6
CONTINUOUS
 62
     7
 10
137.5605514992
 20
30.9970616971
 30
0.0
  0
VERTEX
  5
697
  8
DV3_0
  6
CONTINUOUS
 62
     7
 10
137.5649945817
 20
30.9928254238
 30
0.0
  0
VERTEX
  5
698
  8
DV3_0
  6
CONTINUOUS
 62
     7
 10
137.5694279909
 20
30.98857603
 30
0.0
  0
VERTEX
  5
699
  8
DV3_0
  6
CONTINUOUS
 62
     7
 10
137.5738507784
 20
30.9843139731
 30
0.0
  0
VERTEX
  5
69A
  8
DV3_0
  6
CONTINUOUS
 62
     7
 10
137.5782619957
 20
30.9800397106
 30
0.0
  0
VERTEX
  5
69B
  8
DV3_0
  6
CONTINUOUS
 62
     7
 10
137.5826606942
 20
30.9757537001
 30
0.0
  0
VERTEX
  5
69C
  8
DV3_0
  6
CONTINUOUS
 62
     7
 10
137.5870475382
 20
30.9714547844
 30
0.0
  0
VERTEX
  5
69D
  8
DV3_0
  6
CONTINUOUS
 62
     7
 10
137.5914219412
 20
30.9671427834
 30
0.0
  0
VERTEX
  5
69E
  8
DV3_0
  6
CONTINUOUS
 62
     7
 10
137.5957810794
 20
30.9628196202
 30
0.0
  0
VERTEX
  5
69F
  8
DV3_0
  6
CONTINUOUS
 62
     7
 10
137.6001221286
 20
30.9584872177
 30
0.0
  0
VERTEX
  5
6A0
  8
DV3_0
  6
CONTINUOUS
 62
     7
 10
137.6044422647
 20
30.9541474991
 30
0.0
  0
VERTEX
  5
6A1
  8
DV3_0
  6
CONTINUOUS
 62
     7
 10
137.6087386637
 20
30.9498023873
 30
0.0
  0
VERTEX
  5
6A2
  8
DV3_0
  6
CONTINUOUS
 62
     7
 10
137.6130085016
 20
30.9454538054
 30
0.0
  0
VERTEX
  5
6A3
  8
DV3_0
  6
CONTINUOUS
 62
     7
 10
137.6172489543
 20
30.9411036763
 30
0.0
  0
VERTEX
  5
6A4
  8
DV3_0
  6
CONTINUOUS
 62
     7
 10
137.6214571977
 20
30.9367539232
 30
0.0
  0
VERTEX
  5
6A5
  8
DV3_0
  6
CONTINUOUS
 62
     7
 10
137.6256304078
 20
30.932406469
 30
0.0
  0
VERTEX
  5
6A6
  8
DV3_0
  6
CONTINUOUS
 62
     7
 10
137.6297657605
 20
30.9280632367
 30
0.0
  0
VERTEX
  5
6A7
  8
DV3_0
  6
CONTINUOUS
 62
     7
 10
137.6338604317
 20
30.9237261494
 30
0.0
  0
VERTEX
  5
6A8
  8
DV3_0
  6
CONTINUOUS
 62
     7
 10
137.6379115975
 20
30.9193971302
 30
0.0
  0
VERTEX
  5
6A9
  8
DV3_0
  6
CONTINUOUS
 62
     7
 10
137.6419164337
 20
30.915078102
 30
0.0
  0
VERTEX
  5
6AA
  8
DV3_0
  6
CONTINUOUS
 62
     7
 10
137.6458721163
 20
30.9107709878
 30
0.0
  0
VERTEX
  5
6AB
  8
DV3_0
  6
CONTINUOUS
 62
     7
 10
137.6497758212
 20
30.9064777108
 30
0.0
  0
VERTEX
  5
6AC
  8
DV3_0
  6
CONTINUOUS
 62
     7
 10
137.6536247244
 20
30.9022001938
 30
0.0
  0
VERTEX
  5
6AD
  8
DV3_0
  6
CONTINUOUS
 62
     7
 10
137.6574160019
 20
30.89794036
 30
0.0
  0
VERTEX
  5
6AE
  8
DV3_0
  6
CONTINUOUS
 62
     7
 10
137.6611468295
 20
30.8937001323
 30
0.0
  0
VERTEX
  5
6AF
  8
DV3_0
  6
CONTINUOUS
 62
     7
 10
137.6648143831
 20
30.8894814339
 30
0.0
  0
VERTEX
  5
6B0
  8
DV3_0
  6
CONTINUOUS
 62
     7
 10
137.6684158389
 20
30.8852861876
 30
0.0
  0
VERTEX
  5
6B1
  8
DV3_0
  6
CONTINUOUS
 62
     7
 10
137.6719483726
 20
30.8811163166
 30
0.0
  0
VERTEX
  5
6B2
  8
DV3_0
  6
CONTINUOUS
 62
     7
 10
137.6753970307
 20
30.8769874112
 30
0.0
  0
VERTEX
  5
6B3
  8
DV3_0
  6
CONTINUOUS
 62
     7
 10
137.6787468233
 20
30.8729155081
 30
0.0
  0
VERTEX
  5
6B4
  8
DV3_0
  6
CONTINUOUS
 62
     7
 10
137.6819948723
 20
30.8689032004
 30
0.0
  0
VERTEX
  5
6B5
  8
DV3_0
  6
CONTINUOUS
 62
     7
 10
137.6851382994
 20
30.8649530809
 30
0.0
  0
VERTEX
  5
6B6
  8
DV3_0
  6
CONTINUOUS
 62
     7
 10
137.6881742263
 20
30.8610677424
 30
0.0
  0
VERTEX
  5
6B7
  8
DV3_0
  6
CONTINUOUS
 62
     7
 10
137.6910997748
 20
30.857249778
 30
0.0
  0
VERTEX
  5
6B8
  8
DV3_0
  6
CONTINUOUS
 62
     7
 10
137.6939120667
 20
30.8535017803
 30
0.0
  0
VERTEX
  5
6B9
  8
DV3_0
  6
CONTINUOUS
 62
     7
 10
137.6966082238
 20
30.8498263424
 30
0.0
  0
VERTEX
  5
6BA
  8
DV3_0
  6
CONTINUOUS
 62
     7
 10
137.6991853677
 20
30.8462260571
 30
0.0
  0
VERTEX
  5
6BB
  8
DV3_0
  6
CONTINUOUS
 62
     7
 10
137.7016406202
 20
30.8427035173
 30
0.0
  0
VERTEX
  5
6BC
  8
DV3_0
  6
CONTINUOUS
 62
     7
 10
137.7039711032
 20
30.8392613159
 30
0.0
  0
VERTEX
  5
6BD
  8
DV3_0
  6
CONTINUOUS
 62
     7
 10
137.7061649469
 20
30.8359156555
 30
0.0
  0
VERTEX
  5
6BE
  8
DV3_0
  6
CONTINUOUS
 62
     7
 10
137.7082126541
 20
30.8326812273
 30
0.0
  0
VERTEX
  5
6BF
  8
DV3_0
  6
CONTINUOUS
 62
     7
 10
137.7101149048
 20
30.8295583573
 30
0.0
  0
VERTEX
  5
6C0
  8
DV3_0
  6
CONTINUOUS
 62
     7
 10
137.7118723791
 20
30.8265473718
 30
0.0
  0
VERTEX
  5
6C1
  8
DV3_0
  6
CONTINUOUS
 62
     7
 10
137.713485757
 20
30.8236485966
 30
0.0
  0
VERTEX
  5
6C2
  8
DV3_0
  6
CONTINUOUS
 62
     7
 10
137.7149557187
 20
30.8208623578
 30
0.0
  0
VERTEX
  5
6C3
  8
DV3_0
  6
CONTINUOUS
 62
     7
 10
137.7162829441
 20
30.8181889814
 30
0.0
  0
VERTEX
  5
6C4
  8
DV3_0
  6
CONTINUOUS
 62
     7
 10
137.7174681134
 20
30.8156287936
 30
0.0
  0
VERTEX
  5
6C5
  8
DV3_0
  6
CONTINUOUS
 62
     7
 10
137.7185119067
 20
30.8131821204
 30
0.0
  0
VERTEX
  5
6C6
  8
DV3_0
  6
CONTINUOUS
 62
     7
 10
137.7194150041
 20
30.8108492877
 30
0.0
  0
VERTEX
  5
6C7
  8
DV3_0
  6
CONTINUOUS
 62
     7
 10
137.7201780855
 20
30.8086306216
 30
0.0
  0
VERTEX
  5
6C8
  8
DV3_0
  6
CONTINUOUS
 62
     7
 10
137.7208017942
 20
30.8065310176
 30
0.0
  0
VERTEX
  5
6C9
  8
DV3_0
  6
CONTINUOUS
 62
     7
 10
137.721288525
 20
30.8045535606
 30
0.0
  0
VERTEX
  5
6CA
  8
DV3_0
  6
CONTINUOUS
 62
     7
 10
137.7216415858
 20
30.8026958606
 30
0.0
  0
VERTEX
  5
6CB
  8
DV3_0
  6
CONTINUOUS
 62
     7
 10
137.7218642842
 20
30.8009555279
 30
0.0
  0
VERTEX
  5
6CC
  8
DV3_0
  6
CONTINUOUS
 62
     7
 10
137.7219599281
 20
30.7993301728
 30
0.0
  0
VERTEX
  5
6CD
  8
DV3_0
  6
CONTINUOUS
 62
     7
 10
137.7219318251
 20
30.7978174053
 30
0.0
  0
VERTEX
  5
6CE
  8
DV3_0
  6
CONTINUOUS
 62
     7
 10
137.721783283
 20
30.7964148356
 30
0.0
  0
VERTEX
  5
6CF
  8
DV3_0
  6
CONTINUOUS
 62
     7
 10
137.7215176096
 20
30.7951200741
 30
0.0
  0
VERTEX
  5
6D0
  8
DV3_0
  6
CONTINUOUS
 62
     7
 10
137.7211381125
 20
30.7939307308
 30
0.0
  0
VERTEX
  5
6D1
  8
DV3_0
  6
CONTINUOUS
 62
     7
 10
137.7206480997
 20
30.7928444159
 30
0.0
  0
VERTEX
  5
6D2
  8
DV3_0
  6
CONTINUOUS
 62
     7
 10
137.7200508787
 20
30.7918587396
 30
0.0
  0
VERTEX
  5
6D3
  8
DV3_0
  6
CONTINUOUS
 62
     7
 10
137.7193497573
 20
30.7909713122
 30
0.0
  0
VERTEX
  5
6D4
  8
DV3_0
  6
CONTINUOUS
 62
     7
 10
137.7185480434
 20
30.7901797438
 30
0.0
  0
VERTEX
  5
6D5
  8
DV3_0
  6
CONTINUOUS
 62
     7
 10
137.7176490446
 20
30.7894816446
 30
0.0
  0
VERTEX
  5
6D6
  8
DV3_0
  6
CONTINUOUS
 62
     7
 10
137.7166560687
 20
30.7888746247
 30
0.0
  0
VERTEX
  5
6D7
  8
DV3_0
  6
CONTINUOUS
 62
     7
 10
137.7155724234
 20
30.7883562945
 30
0.0
  0
VERTEX
  5
6D8
  8
DV3_0
  6
CONTINUOUS
 62
     7
 10
137.7144014165
 20
30.787924264
 30
0.0
  0
VERTEX
  5
6D9
  8
DV3_0
  6
CONTINUOUS
 62
     7
 10
137.7131463558
 20
30.7875761435
 30
0.0
  0
VERTEX
  5
6DA
  8
DV3_0
  6
CONTINUOUS
 62
     7
 10
137.7118105489
 20
30.7873095432
 30
0.0
  0
VERTEX
  5
6DB
  8
DV3_0
  6
CONTINUOUS
 62
     7
 10
137.7103973037
 20
30.7871220732
 30
0.0
  0
VERTEX
  5
6DC
  8
DV3_0
  6
CONTINUOUS
 62
     7
 10
137.7089099278
 20
30.7870113437
 30
0.0
  0
VERTEX
  5
6DD
  8
DV3_0
  6
CONTINUOUS
 62
     7
 10
137.7073517291
 20
30.7869749649
 30
0.0
  0
SEQEND
  5
7AC
  8
DV3_0
  6
CONTINUOUS
 62
     7
  0
LINE
  5
2DC
  8
DV3_0
  6
CONTINUOUS
 62
     7
 10
135.7665196552
 20
30.7869749649
 30
0.0
 11
135.7630295553
 21
30.7869749649
 31
0.0
  0
POLYLINE
  5
2DD
  8
DV3_0
  6
CONTINUOUS
 62
     7
 66
     1
 10
0.0
 20
0.0
 30
0.0
  0
VERTEX
  5
6DE
  8
DV3_0
  6
CONTINUOUS
 62
     7
 10
135.7630295553
 20
30.7869749649
 30
0.0
  0
VERTEX
  5
6DF
  8
DV3_0
  6
CONTINUOUS
 62
     7
 10
135.7570607043
 20
30.7870119332
 30
0.0
  0
VERTEX
  5
6E0
  8
DV3_0
  6
CONTINUOUS
 62
     7
 10
135.7511102421
 20
30.7871243323
 30
0.0
  0
VERTEX
  5
6E1
  8
DV3_0
  6
CONTINUOUS
 62
     7
 10
135.7451824965
 20
30.7873144034
 30
0.0
  0
VERTEX
  5
6E2
  8
DV3_0
  6
CONTINUOUS
 62
     7
 10
135.7392817952
 20
30.7875843877
 30
0.0
  0
VERTEX
  5
6E3
  8
DV3_0
  6
CONTINUOUS
 62
     7
 10
135.733412466
 20
30.7879365266
 30
0.0
  0
VERTEX
  5
6E4
  8
DV3_0
  6
CONTINUOUS
 62
     7
 10
135.7275788365
 20
30.7883730612
 30
0.0
  0
VERTEX
  5
6E5
  8
DV3_0
  6
CONTINUOUS
 62
     7
 10
135.7217852346
 20
30.7888962329
 30
0.0
  0
VERTEX
  5
6E6
  8
DV3_0
  6
CONTINUOUS
 62
     7
 10
135.7160359879
 20
30.7895082829
 30
0.0
  0
VERTEX
  5
6E7
  8
DV3_0
  6
CONTINUOUS
 62
     7
 10
135.7103354242
 20
30.7902114523
 30
0.0
  0
VERTEX
  5
6E8
  8
DV3_0
  6
CONTINUOUS
 62
     7
 10
135.7046878712
 20
30.7910079826
 30
0.0
  0
VERTEX
  5
6E9
  8
DV3_0
  6
CONTINUOUS
 62
     7
 10
135.6990976567
 20
30.7919001149
 30
0.0
  0
VERTEX
  5
6EA
  8
DV3_0
  6
CONTINUOUS
 62
     7
 10
135.6935691084
 20
30.7928900905
 30
0.0
  0
VERTEX
  5
6EB
  8
DV3_0
  6
CONTINUOUS
 62
     7
 10
135.688106554
 20
30.7939801507
 30
0.0
  0
VERTEX
  5
6EC
  8
DV3_0
  6
CONTINUOUS
 62
     7
 10
135.6827143212
 20
30.7951725366
 30
0.0
  0
VERTEX
  5
6ED
  8
DV3_0
  6
CONTINUOUS
 62
     7
 10
135.6773967378
 20
30.7964694896
 30
0.0
  0
VERTEX
  5
6EE
  8
DV3_0
  6
CONTINUOUS
 62
     7
 10
135.6721581316
 20
30.7978732508
 30
0.0
  0
VERTEX
  5
6EF
  8
DV3_0
  6
CONTINUOUS
 62
     7
 10
135.6670028302
 20
30.7993860617
 30
0.0
  0
VERTEX
  5
6F0
  8
DV3_0
  6
CONTINUOUS
 62
     7
 10
135.6619351614
 20
30.8010101633
 30
0.0
  0
VERTEX
  5
6F1
  8
DV3_0
  6
CONTINUOUS
 62
     7
 10
135.6569594529
 20
30.802747797
 30
0.0
  0
VERTEX
  5
6F2
  8
DV3_0
  6
CONTINUOUS
 62
     7
 10
135.6520800325
 20
30.804601204
 30
0.0
  0
VERTEX
  5
6F3
  8
DV3_0
  6
CONTINUOUS
 62
     7
 10
135.6473012279
 20
30.8065726256
 30
0.0
  0
VERTEX
  5
6F4
  8
DV3_0
  6
CONTINUOUS
 62
     7
 10
135.6426273668
 20
30.8086643029
 30
0.0
  0
VERTEX
  5
6F5
  8
DV3_0
  6
CONTINUOUS
 62
     7
 10
135.6380719889
 20
30.8108772834
 30
0.0
  0
VERTEX
  5
6F6
  8
DV3_0
  6
CONTINUOUS
 62
     7
 10
135.6336494215
 20
30.8132096707
 30
0.0
  0
VERTEX
  5
6F7
  8
DV3_0
  6
CONTINUOUS
 62
     7
 10
135.6293651736
 20
30.8156592913
 30
0.0
  0
VERTEX
  5
6F8
  8
DV3_0
  6
CONTINUOUS
 62
     7
 10
135.6252247543
 20
30.8182239713
 30
0.0
  0
VERTEX
  5
6F9
  8
DV3_0
  6
CONTINUOUS
 62
     7
 10
135.6212336725
 20
30.8209015369
 30
0.0
  0
VERTEX
  5
6FA
  8
DV3_0
  6
CONTINUOUS
 62
     7
 10
135.6173974374
 20
30.8236898145
 30
0.0
  0
VERTEX
  5
6FB
  8
DV3_0
  6
CONTINUOUS
 62
     7
 10
135.6137215578
 20
30.8265866302
 30
0.0
  0
VERTEX
  5
6FC
  8
DV3_0
  6
CONTINUOUS
 62
     7
 10
135.6102115429
 20
30.8295898103
 30
0.0
  0
VERTEX
  5
6FD
  8
DV3_0
  6
CONTINUOUS
 62
     7
 10
135.6068729018
 20
30.832697181
 30
0.0
  0
VERTEX
  5
6FE
  8
DV3_0
  6
CONTINUOUS
 62
     7
 10
135.6037111433
 20
30.8359065687
 30
0.0
  0
VERTEX
  5
6FF
  8
DV3_0
  6
CONTINUOUS
 62
     7
 10
135.6007317766
 20
30.8392157994
 30
0.0
  0
VERTEX
  5
700
  8
DV3_0
  6
CONTINUOUS
 62
     7
 10
135.5979378906
 20
30.8426244194
 30
0.0
  0
VERTEX
  5
701
  8
DV3_0
  6
CONTINUOUS
 62
     7
 10
135.5953288791
 20
30.846129608
 30
0.0
  0
VERTEX
  5
702
  8
DV3_0
  6
CONTINUOUS
 62
     7
 10
135.5929047085
 20
30.8497256416
 30
0.0
  0
VERTEX
  5
703
  8
DV3_0
  6
CONTINUOUS
 62
     7
 10
135.5906653453
 20
30.8534067965
 30
0.0
  0
VERTEX
  5
704
  8
DV3_0
  6
CONTINUOUS
 62
     7
 10
135.5886107559
 20
30.857167349
 30
0.0
  0
VERTEX
  5
705
  8
DV3_0
  6
CONTINUOUS
 62
     7
 10
135.5867409067
 20
30.8610015754
 30
0.0
  0
VERTEX
  5
706
  8
DV3_0
  6
CONTINUOUS
 62
     7
 10
135.5850557642
 20
30.8649037519
 30
0.0
  0
VERTEX
  5
707
  8
DV3_0
  6
CONTINUOUS
 62
     7
 10
135.5835552946
 20
30.8688681549
 30
0.0
  0
VERTEX
  5
708
  8
DV3_0
  6
CONTINUOUS
 62
     7
 10
135.5822394646
 20
30.8728890608
 30
0.0
  0
VERTEX
  5
709
  8
DV3_0
  6
CONTINUOUS
 62
     7
 10
135.5811082405
 20
30.8769607457
 30
0.0
  0
VERTEX
  5
70A
  8
DV3_0
  6
CONTINUOUS
 62
     7
 10
135.5801615886
 20
30.881077486
 30
0.0
  0
VERTEX
  5
70B
  8
DV3_0
  6
CONTINUOUS
 62
     7
 10
135.5793948535
 20
30.8852309288
 30
0.0
  0
VERTEX
  5
70C
  8
DV3_0
  6
CONTINUOUS
 62
     7
 10
135.5788006255
 20
30.889414922
 30
0.0
  0
VERTEX
  5
70D
  8
DV3_0
  6
CONTINUOUS
 62
     7
 10
135.57837474
 20
30.8936270429
 30
0.0
  0
VERTEX
  5
70E
  8
DV3_0
  6
CONTINUOUS
 62
     7
 10
135.5781130324
 20
30.8978648688
 30
0.0
  0
VERTEX
  5
70F
  8
DV3_0
  6
CONTINUOUS
 62
     7
 10
135.5780113382
 20
30.9021259772
 30
0.0
  0
VERTEX
  5
710
  8
DV3_0
  6
CONTINUOUS
 62
     7
 10
135.5780654928
 20
30.9064079455
 30
0.0
  0
VERTEX
  5
711
  8
DV3_0
  6
CONTINUOUS
 62
     7
 10
135.5782713315
 20
30.910708351
 30
0.0
  0
VERTEX
  5
712
  8
DV3_0
  6
CONTINUOUS
 62
     7
 10
135.5786246898
 20
30.9150247711
 30
0.0
  0
VERTEX
  5
713
  8
DV3_0
  6
CONTINUOUS
 62
     7
 10
135.5791214031
 20
30.9193547832
 30
0.0
  0
VERTEX
  5
714
  8
DV3_0
  6
CONTINUOUS
 62
     7
 10
135.5797573069
 20
30.9236959646
 30
0.0
  0
VERTEX
  5
715
  8
DV3_0
  6
CONTINUOUS
 62
     7
 10
135.5805282364
 20
30.9280458928
 30
0.0
  0
VERTEX
  5
716
  8
DV3_0
  6
CONTINUOUS
 62
     7
 10
135.5814300273
 20
30.9324021452
 30
0.0
  0
VERTEX
  5
717
  8
DV3_0
  6
CONTINUOUS
 62
     7
 10
135.5824585147
 20
30.936762299
 30
0.0
  0
VERTEX
  5
718
  8
DV3_0
  6
CONTINUOUS
 62
     7
 10
135.5836095343
 20
30.9411239318
 30
0.0
  0
VERTEX
  5
719
  8
DV3_0
  6
CONTINUOUS
 62
     7
 10
135.5848789214
 20
30.9454846208
 30
0.0
  0
VERTEX
  5
71A
  8
DV3_0
  6
CONTINUOUS
 62
     7
 10
135.5862625113
 20
30.9498419434
 30
0.0
  0
VERTEX
  5
71B
  8
DV3_0
  6
CONTINUOUS
 62
     7
 10
135.5877561396
 20
30.9541934771
 30
0.0
  0
VERTEX
  5
71C
  8
DV3_0
  6
CONTINUOUS
 62
     7
 10
135.5893556416
 20
30.9585367992
 30
0.0
  0
VERTEX
  5
71D
  8
DV3_0
  6
CONTINUOUS
 62
     7
 10
135.5910568528
 20
30.9628694871
 30
0.0
  0
VERTEX
  5
71E
  8
DV3_0
  6
CONTINUOUS
 62
     7
 10
135.5928556085
 20
30.9671891182
 30
0.0
  0
VERTEX
  5
71F
  8
DV3_0
  6
CONTINUOUS
 62
     7
 10
135.5947477442
 20
30.9714932698
 30
0.0
  0
VERTEX
  5
720
  8
DV3_0
  6
CONTINUOUS
 62
     7
 10
135.5967290953
 20
30.9757795193
 30
0.0
  0
VERTEX
  5
721
  8
DV3_0
  6
CONTINUOUS
 62
     7
 10
135.598796857
 20
30.9800503468
 30
0.0
  0
VERTEX
  5
722
  8
DV3_0
  6
CONTINUOUS
 62
     7
 10
135.6009498085
 20
30.984309653
 30
0.0
  0
VERTEX
  5
723
  8
DV3_0
  6
CONTINUOUS
 62
     7
 10
135.6031861608
 20
30.9885571466
 30
0.0
  0
VERTEX
  5
724
  8
DV3_0
  6
CONTINUOUS
 62
     7
 10
135.605504125
 20
30.9927925361
 30
0.0
  0
VERTEX
  5
725
  8
DV3_0
  6
CONTINUOUS
 62
     7
 10
135.6079019122
 20
30.9970155303
 30
0.0
  0
VERTEX
  5
726
  8
DV3_0
  6
CONTINUOUS
 62
     7
 10
135.6103777334
 20
31.0012258377
 30
0.0
  0
VERTEX
  5
727
  8
DV3_0
  6
CONTINUOUS
 62
     7
 10
135.6129297996
 20
31.0054231669
 30
0.0
  0
VERTEX
  5
728
  8
DV3_0
  6
CONTINUOUS
 62
     7
 10
135.6155563221
 20
31.0096072265
 30
0.0
  0
VERTEX
  5
729
  8
DV3_0
  6
CONTINUOUS
 62
     7
 10
135.6182555119
 20
31.0137777252
 30
0.0
  0
VERTEX
  5
72A
  8
DV3_0
  6
CONTINUOUS
 62
     7
 10
135.6210255799
 20
31.0179343716
 30
0.0
  0
VERTEX
  5
72B
  8
DV3_0
  6
CONTINUOUS
 62
     7
 10
135.6238647374
 20
31.0220768743
 30
0.0
  0
VERTEX
  5
72C
  8
DV3_0
  6
CONTINUOUS
 62
     7
 10
135.6267711954
 20
31.026204942
 30
0.0
  0
VERTEX
  5
72D
  8
DV3_0
  6
CONTINUOUS
 62
     7
 10
135.6297431649
 20
31.0303182831
 30
0.0
  0
VERTEX
  5
72E
  8
DV3_0
  6
CONTINUOUS
 62
     7
 10
135.6327788571
 20
31.0344166065
 30
0.0
  0
VERTEX
  5
72F
  8
DV3_0
  6
CONTINUOUS
 62
     7
 10
135.6358764829
 20
31.0384996206
 30
0.0
  0
VERTEX
  5
730
  8
DV3_0
  6
CONTINUOUS
 62
     7
 10
135.6390342536
 20
31.0425670341
 30
0.0
  0
VERTEX
  5
731
  8
DV3_0
  6
CONTINUOUS
 62
     7
 10
135.6422503801
 20
31.0466185555
 30
0.0
  0
VERTEX
  5
732
  8
DV3_0
  6
CONTINUOUS
 62
     7
 10
135.6455230736
 20
31.0506538937
 30
0.0
  0
VERTEX
  5
733
  8
DV3_0
  6
CONTINUOUS
 62
     7
 10
135.6488505451
 20
31.054672757
 30
0.0
  0
VERTEX
  5
734
  8
DV3_0
  6
CONTINUOUS
 62
     7
 10
135.6522310056
 20
31.0586748543
 30
0.0
  0
VERTEX
  5
735
  8
DV3_0
  6
CONTINUOUS
 62
     7
 10
135.6556626663
 20
31.062659894
 30
0.0
  0
VERTEX
  5
736
  8
DV3_0
  6
CONTINUOUS
 62
     7
 10
135.6591437383
 20
31.0666275848
 30
0.0
  0
SEQEND
  5
7AB
  8
DV3_0
  6
CONTINUOUS
 62
     7
  0
LINE
  5
2DE
  8
DV3_0
  6
CONTINUOUS
 62
     7
 10
137.7064165596
 20
30.7869749649
 30
0.0
 11
135.9733825702
 21
30.7869749649
 31
0.0
  0
LINE
  5
2DF
  8
DV3_0
  6
CONTINUOUS
 62
     7
 10
135.9733825702
 20
30.7869749649
 30
0.0
 11
135.7665196552
 21
30.7869749649
 31
0.0
  0
LINE
  5
2E0
  8
DV3_0
  6
CONTINUOUS
 62
     7
 10
137.7073517291
 20
30.7869749649
 30
0.0
 11
137.7064165596
 21
30.7869749649
 31
0.0
  0
LINE
  5
2E1
  8
DV3_0
  6
CONTINUOUS
 62
     7
 10
131.4491517713
 20
35.2029749649
 30
0.0
 11
131.3913310224
 21
35.2029749649
 31
0.0
  0
ARC
  5
2E2
  8
DV3_0
  6
CONTINUOUS
 62
     7
 10
131.3042813091
 20
35.10716442
 30
0.0
 40
0.17368681970533
 50
359.937502565
 51
33.47878503
  0
LINE
  5
2E3
  8
DV3_0
  6
CONTINUOUS
 62
     7
 10
131.4779680254
 20
35.1069749649
 30
0.0
 11
131.4779680254
 21
31.1069749649
 31
0.0
  0
LINE
  5
2E4
  8
DV3_0
  6
CONTINUOUS
 62
     7
 10
131.4779680254
 20
31.1069749649
 30
0.0
 11
131.480270886
 21
31.0666275848
 31
0.0
  0
ARC
  5
2E5
  8
DV3_0
  6
CONTINUOUS
 62
     7
 10
131.8300434396
 20
31.1445931787
 30
0.0
 40
0.3583566283272013
 50
192.5660103079
 51
266.3212131603
  0
ARC
  5
2E6
  8
DV3_0
  6
CONTINUOUS
 62
     7
 10
152.5433310224
 20
35.5869749649
 30
0.0
 40
0.3200000000000003
 50
270.0
 51
0.0
  0
ARC
  5
2E7
  8
DV3_0
  6
CONTINUOUS
 62
     7
 10
130.7833310224
 20
35.5869749649
 30
0.0
 40
0.3200000000000003
 50
180.0
 51
270.0
  0
LINE
  5
2E8
  8
DV3_0
  6
CONTINUOUS
 62
     7
 10
152.8633310224
 20
35.5869749649
 30
0.0
 11
152.8633310224
 21
36.2269749649
 31
0.0
  0
LINE
  5
2E9
  8
DV3_0
  6
CONTINUOUS
 62
     7
 10
130.4633310224
 20
36.2269749649
 30
0.0
 11
130.4633310224
 21
35.5869749649
 31
0.0
  0
ARC
  5
2EA
  8
DV3_0
  6
CONTINUOUS
 62
     7
 10
152.0633310224
 20
35.1069749649
 30
0.0
 40
0.1599999999999997
 50
90.0
 51
143.1301023542
  0
ARC
  5
2EB
  8
DV3_0
  6
CONTINUOUS
 62
     7
 10
131.2633310224
 20
35.1069749649
 30
0.0
 40
0.1600000000000002
 50
36.8698976458
 51
90.0
  0
LINE
  5
2EC
  8
DV3_0
  6
CONTINUOUS
 62
     7
 10
151.5833310224
 20
37.1869749649
 30
0.0
 11
151.5833310224
 21
37.5069749649
 31
0.0
  0
LINE
  5
2ED
  8
DV3_0
  6
CONTINUOUS
 62
     7
 10
131.7433310224
 20
37.5069749649
 30
0.0
 11
131.7433310224
 21
37.1869749649
 31
0.0
  0
LINE
  5
2EE
  8
DV3_0
  6
CONTINUOUS
 62
     7
 10
151.3433310224
 20
36.2269749649
 30
0.0
 11
151.3433310224
 21
37.1869749649
 31
0.0
  0
LINE
  5
2EF
  8
DV3_0
  6
CONTINUOUS
 62
     7
 10
131.9833310224
 20
37.1869749649
 30
0.0
 11
131.9833310224
 21
36.2269749649
 31
0.0
  0
LINE
  5
2F0
  8
DV3_0
  6
CONTINUOUS
 62
     7
 10
135.1393104033
 20
28.2269749649
 30
0.0
 11
148.1873516415
 21
28.2269749649
 31
0.0
  0
LINE
  5
2F1
  8
DV3_0
  6
CONTINUOUS
 62
     7
 10
135.4933483235
 20
28.4509749649
 30
0.0
 11
135.1033310224
 21
28.4509749649
 31
0.0
  0
LINE
  5
2F2
  8
DV3_0
  6
CONTINUOUS
 62
     7
 10
133.9833310224
 20
30.6269749649
 30
0.0
 11
149.3433310224
 21
30.6269749649
 31
0.0
  0
LINE
  5
2F3
  8
DV3_0
  6
CONTINUOUS
 62
     7
 10
148.2233310224
 20
28.4509749649
 30
0.0
 11
147.8333137213
 21
28.4509749649
 31
0.0
  0
LINE
  5
2F4
  8
DV3_0
  6
CONTINUOUS
 62
     7
 10
142.0533483235
 20
28.4509749649
 30
0.0
 11
141.2733137213
 21
28.4509749649
 31
0.0
  0
LINE
  5
2F5
  8
DV3_0
  6
CONTINUOUS
 62
     7
 10
135.1033310224
 20
28.4509749649
 30
0.0
 11
135.1033310224
 21
28.2366163299
 31
0.0
  0
ARC
  5
2F6
  8
DV3_0
  6
CONTINUOUS
 62
     7
 10
138.3833310224
 20
47.9584108898
 30
0.0
 40
19.7203462536114
 50
261.5730534204
 51
278.4269465796
  0
ARC
  5
2F7
  8
DV3_0
  6
CONTINUOUS
 62
     7
 10
144.9433310224
 20
47.9584108898
 30
0.0
 40
19.72034625361139
 50
261.5730534204
 51
278.4269465796
  0
LINE
  5
2F8
  8
DV3_0
  6
CONTINUOUS
 62
     7
 10
148.2233310224
 20
28.4509749649
 30
0.0
 11
148.2233310224
 21
28.2366163299
 31
0.0
  0
LINE
  5
2F9
  8
DV3_0
  6
CONTINUOUS
 62
     7
 10
148.2233310224
 20
30.6269749649
 30
0.0
 11
148.2233310224
 21
28.4509749649
 31
0.0
  0
LINE
  5
2FA
  8
DV3_0
  6
CONTINUOUS
 62
     7
 10
142.0533483235
 20
30.6269749649
 30
0.0
 11
142.0533483235
 21
28.4509749649
 31
0.0
  0
LINE
  5
2FB
  8
DV3_0
  6
CONTINUOUS
 62
     7
 10
141.2733137213
 20
28.4509749649
 30
0.0
 11
141.2733137213
 21
30.6269749649
 31
0.0
  0
LINE
  5
2FC
  8
DV3_0
  6
CONTINUOUS
 62
     7
 10
135.1033310224
 20
28.4509749649
 30
0.0
 11
135.1033310224
 21
30.6269749649
 31
0.0
  0
LINE
  5
2FD
  8
DV3_0
  6
CONTINUOUS
 62
     7
 10
135.1033310224
 20
28.236615611
 30
0.0
 11
135.1393104033
 21
28.2269749649
 31
0.0
  0
LINE
  5
2FE
  8
DV3_0
  6
CONTINUOUS
 62
     7
 10
148.1873516415
 20
28.2269749649
 30
0.0
 11
148.2233310224
 21
28.236615611
 31
0.0
  0
LINE
  5
2FF
  8
DV3_0
  6
CONTINUOUS
 62
     7
 10
133.8233310224
 20
30.7869749649
 30
0.0
 11
133.9833310224
 21
30.6269749649
 31
0.0
  0
LINE
  5
300
  8
DV3_0
  6
CONTINUOUS
 62
     7
 10
149.3433310224
 20
30.6269749649
 30
0.0
 11
149.5033310224
 21
30.7869749649
 31
0.0
  0
LINE
  5
301
  8
DV3_0
  6
CONTINUOUS
 62
     7
 10
139.8745054621
 20
88.7069749649
 30
0.0
 11
139.4175872808
 21
88.7069749649
 31
0.0
  0
LINE
  5
302
  8
DV3_0
  6
CONTINUOUS
 62
     7
 10
139.8745054621
 20
88.7069749649
 30
0.0
 11
143.4521565827
 21
88.7069749649
 31
0.0
  0
LINE
  5
303
  8
DV3_0
  6
CONTINUOUS
 62
     7
 10
143.4521565827
 20
88.7069749649
 30
0.0
 11
143.909074764
 21
88.7069749649
 31
0.0
  0
LINE
  5
304
  8
DV3_0
  6
CONTINUOUS
 62
     7
 10
144.4633310224
 20
85.5069749649
 30
0.0
 11
144.4633310224
 21
87.7469749649
 31
0.0
  0
LINE
  5
305
  8
DV3_0
  6
CONTINUOUS
 62
     7
 10
138.8633310224
 20
87.7469749649
 30
0.0
 11
138.8633310224
 21
85.5069749649
 31
0.0
  0
LINE
  5
306
  8
DV3_0
  6
CONTINUOUS
 62
     7
 10
144.4633310224
 20
87.7469749649
 30
0.0
 11
143.909074764
 21
88.7069749649
 31
0.0
  0
LINE
  5
307
  8
DV3_0
  6
CONTINUOUS
 62
     7
 10
139.4175872808
 20
88.7069749649
 30
0.0
 11
138.8633310224
 21
87.7469749649
 31
0.0
  0
LINE
  5
308
  8
2A_GESTRICHELT_1
  6
HIDDEN2
 62
     1
 10
140.3833310224
 20
45.0897437402
 30
0.0
 11
140.3833310224
 21
54.5297437402
 31
0.0
  0
LINE
  5
309
  8
2A_GESTRICHELT_1
  6
HIDDEN2
 62
     1
 10
142.9433310224
 20
54.5297437402
 30
0.0
 11
140.3833310224
 21
54.5297437402
 31
0.0
  0
LINE
  5
30A
  8
2A_GESTRICHELT_1
  6
HIDDEN2
 62
     1
 10
142.9433310224
 20
45.0897437402
 30
0.0
 11
142.9433310224
 21
54.5297437402
 31
0.0
  0
LINE
  5
30B
  8
2A_GESTRICHELT_1
  6
HIDDEN2
 62
     1
 10
140.3833310224
 20
45.0897437402
 30
0.0
 11
142.9433310224
 21
45.0897437402
 31
0.0
  0
LINE
  5
30C
  8
0A_AUSSEN_DICK
  6
HIDDEN2
 62
     3
 10
137.8233310224
 20
46.1469749649
 30
0.0
 11
145.5033310224
 21
46.1469749649
 31
0.0
  0
LINE
  5
30D
  8
2A_GESTRICHELT_1
  6
HIDDEN2
 62
     1
 10
137.8233310224
 20
43.3200955404
 30
0.0
 11
137.8233310224
 21
46.1469749649
 31
0.0
  0
LINE
  5
30E
  8
2A_GESTRICHELT_1
  6
HIDDEN2
 62
     1
 10
145.5033310224
 20
43.3191209242
 30
0.0
 11
145.5033310224
 21
46.1469749649
 31
0.0
  0
LINE
  5
30F
  8
2A_GESTRICHELT_1
  6
HIDDEN2
 62
     1
 10
136.3833310224
 20
33.5697437402
 30
0.0
 11
137.8233310224
 21
43.3200955404
 31
0.0
  0
LINE
  5
310
  8
0A_AUSSEN_DICK
  6
HIDDEN2
 62
     3
 10
137.8233310224
 20
43.3200955404
 30
0.0
 11
145.5033310224
 21
43.3191209242
 31
0.0
  0
LINE
  5
311
  8
2A_GESTRICHELT_1
  6
HIDDEN2
 62
     1
 10
146.9433310224
 20
33.5697437402
 30
0.0
 11
145.5033310224
 21
43.3191209242
 31
0.0
  0
LINE
  5
312
  8
2A_GESTRICHELT_1
  6
HIDDEN2
 62
     1
 10
137.0233310224
 20
33.5697437402
 30
0.0
 11
136.3833310224
 21
33.5697437402
 31
0.0
  0
LINE
  5
313
  8
2A_GESTRICHELT_1
  6
HIDDEN2
 62
     1
 10
136.3833310224
 20
32.4497437402
 30
0.0
 11
137.0233310224
 21
32.4497437402
 31
0.0
  0
LINE
  5
314
  8
2A_GESTRICHELT_1
  6
HIDDEN2
 62
     1
 10
137.0233310224
 20
33.5697437402
 30
0.0
 11
137.0233310224
 21
32.4497437402
 31
0.0
  0
LINE
  5
315
  8
0A_AUSSEN_DICK
  6
HIDDEN2
 62
     3
 10
137.3433310224
 20
30.7869749649
 30
0.0
 11
145.9833310224
 21
30.7869749649
 31
0.0
  0
LINE
  5
316
  8
2A_GESTRICHELT_1
  6
HIDDEN2
 62
     1
 10
136.3833310224
 20
32.4497437402
 30
0.0
 11
137.3433310224
 21
30.7869749649
 31
0.0
  0
LINE
  5
317
  8
2A_GESTRICHELT_1
  6
HIDDEN2
 62
     1
 10
146.9433310224
 20
32.4497437402
 30
0.0
 11
145.9833310224
 21
30.7869749649
 31
0.0
  0
LINE
  5
318
  8
2A_GESTRICHELT_1
  6
HIDDEN2
 62
     1
 10
146.3033310224
 20
33.5697437402
 30
0.0
 11
146.9433310224
 21
33.5697437402
 31
0.0
  0
LINE
  5
319
  8
2A_GESTRICHELT_1
  6
HIDDEN2
 62
     1
 10
146.9433310224
 20
32.4497437402
 30
0.0
 11
146.3033310224
 21
32.4497437402
 31
0.0
  0
LINE
  5
31A
  8
2A_GESTRICHELT_1
  6
HIDDEN2
 62
     1
 10
146.3033310224
 20
33.5697437402
 30
0.0
 11
146.3033310224
 21
32.4497437402
 31
0.0
  0
LINE
  5
31B
  8
1A_AUSSEN_DUENN
  6
CONTINUOUS
 62
     1
 10
132.606419805
 20
27.6899830583
 30
0.0
 11
133.9925532399
 21
22.9973213081
 31
0.0
  0
LINE
  5
31C
  8
1A_AUSSEN_DUENN
  6
CONTINUOUS
 62
     1
 10
132.8157376727
 20
27.7134147606
 30
0.0
 11
134.8419541791
 21
23.2529749925
 31
0.0
  0
LINE
  5
31D
  8
1A_AUSSEN_DUENN
  6
CONTINUOUS
 62
     1
 10
132.4179653969
 20
27.5959195137
 30
0.0
 11
133.1419280105
 21
22.7412991353
 31
0.0
  0
LINE
  5
31F
  8
DV3_DEFAULT
  6
CENTER2
 62
     1
 10
129.3113314803
 20
42.9469749649
 30
0.0
 11
127.2313314803
 21
42.9469749649
 31
0.0
  0
LINE
  5
320
  8
DV3_DEFAULT
  6
CENTER2
 62
     1
 10
141.6633310224
 20
27.0787181923
 30
0.0
 11
141.6633310224
 21
89.885234903
 31
0.0
  0
LINE
  5
321
  8
DV3_DEFAULT
  6
CENTER2
 62
     1
 10
152.5433310224
 20
60.2499237996
 30
0.0
 11
152.5433310224
 21
63.4061749649
 31
0.0
  0
LINE
  5
322
  8
DV3_DEFAULT
  6
CENTER2
 62
     1
 10
130.7833310224
 20
59.5591489502
 30
0.0
 11
130.7833310224
 21
63.4061749649
 31
0.0
  0
LINE
  5
323
  8
DV3_DEFAULT
  6
CONTINUOUS
 62
     3
 10
138.8633310224
 20
87.7469749649
 30
0.0
 11
144.4633310224
 21
85.5069749649
 31
0.0
  0
LINE
  5
324
  8
DV3_DEFAULT
  6
CONTINUOUS
 62
     3
 10
144.4633310224
 20
87.7469749649
 30
0.0
 11
138.8633310224
 21
85.5069749649
 31
0.0
  0
LINE
  5
325
  8
DV3_DEFAULT
  6
DASHDOT2
 62
     1
 10
134.4633310224
 20
62.8829749649
 30
0.0
 11
134.4633310224
 21
59.3309749649
 31
0.0
  0
LINE
  5
326
  8
DV3_DEFAULT
  6
DASHDOT2
 62
     1
 10
148.8633310224
 20
62.8829749649
 30
0.0
 11
148.8633310224
 21
59.3309749649
 31
0.0
  0
INSERT
  5
328
  8
DEFAULT
  2
SE
 10
0.0
 20
0.0
 30
0.0
  0
INSERT
  5
32C
  8
DEFAULT
  2
SE1
 10
0.0
 20
0.0
 30
0.0
  0
INSERT
  5
330
  8
DEFAULT
  2
GDIMGGROUP
 10
0.0
 20
0.0
 30
0.0
  0
INSERT
  5
33D
  8
DEFAULT
  2
GDIMGGROUP1
 10
0.0
 20
0.0
 30
0.0
  0
INSERT
  5
347
  8
DEFAULT
  2
GDIMGGROUP2
 10
0.0
 20
0.0
 30
0.0
  0
INSERT
  5
351
  8
DEFAULT
  2
GDIMGGROUP3
 10
0.0
 20
0.0
 30
0.0
  0
INSERT
  5
35B
  8
DEFAULT
  2
GDIMGGROUP4
 10
0.0
 20
0.0
 30
0.0
  0
INSERT
  5
365
  8
DEFAULT
  2
GDIMGGROUP5
 10
0.0
 20
0.0
 30
0.0
  0
INSERT
  5
36F
  8
DEFAULT
  2
SE2
 10
0.0
 20
0.0
 30
0.0
  0
INSERT
  5
37D
  8
DEFAULT
  2
GDIMGGROUP6
 10
0.0
 20
0.0
 30
0.0
  0
INSERT
  5
387
  8
DEFAULT
  2
GDIMGGROUP7
 10
0.0
 20
0.0
 30
0.0
  0
INSERT
  5
391
  8
DEFAULT
  2
GDIMGGROUP8
 10
0.0
 20
0.0
 30
0.0
  0
INSERT
  5
39B
  8
DEFAULT
  2
GDIMGGROUP9
 10
0.0
 20
0.0
 30
0.0
  0
INSERT
  5
3A6
  8
DEFAULT
  2
GDIMGGROUP10
 10
0.0
 20
0.0
 30
0.0
  0
INSERT
  5
3B0
  8
DEFAULT
  2
SE4
 10
0.0
 20
0.0
 30
0.0
  0
ENDSEC
  0
EOF
